Queen - Tie Your Mother Down Chords & Tabs

 

Tie Your Mother Down Chords & Tabs

Queen Chords & Tabs

Version: 3 Type: Tab 0 ratings
1 star 2 stars 3 stars 4 stars 5 stars
comments

Tie Your Mother Down Tab

   
-------------------------------------------------------------------------------
			     Tie your mother down - queen
-------------------------------------------------------------------------------
Tabbed by:Conky
Email:conky4@hotmail.com

Tuning: Standard (EADGBe)

use a slide for the solo

verse
   A                                                G C 
e|--------------------------------------------------3-3----------------------|
B|-222----222---222---222---222---222---222---222---3-0-3-3------------------|
G|-222----222---222---222---222---222---222---222---0-0-0-0------------------|
D|-222----222---222---222---222---222---222---222---0-0-2-0------------------|
A|-003p0--003p0-003p0-003p0-003p0-003p0-003p0-003p0-2-0-3-2------------------|
E|--------------------------------------------------3-2----------------------|

pre-chorus part1

e|---------------------------------------------------------------------------|
B|---------------------------------------------------------------------------|
G|-7-7- 7-7-7- 7-7-7- 7-7-7- 7-7-7- 7-7-7- 7-7-7- 7-121212121212\------------|
D|-7-7-11-7-7-11-7-7-11-7-7-11-7-7-11-7-7-11-7-7-11-121212121212\------------|
A|-9-9- 9-9-9- 9-9-9- 9-9-9- 9-9-9- 9-9-9- 9-9-9- 9-101010101010\------------|
E|---------------------------------------------------------------------------|

Pre-chorus part2
e|---------------------------------------------------------------------------|
B|-222----222---222---222---222---222---222---222----------------------------|
G|-222----222---222---222---222---222---222---222----------------------------|
D|-222----222---222---222---222---222---222---222----------------------------|
A|-003p0--003p0-003p0-003p0-003p0-003p0-003p0-003p0-0-2-3-4------------------|
E|---------------------------------------------------------------------------|

Pre-chorus part3
e|---------------------------------------------------------------------------|
B|-222---222-----------------------------------------------------------------|
G|-222---222-----------------------------------------------------------------|
D|-222---222-----------------------------------------------------------------|
A|-003p0-003p0-0-2-3-4-------------------------------------------------------|
E|---------------------------------------------------------------------------|

Chorus

e|---------------------------------------------------------------------------|
B|-----------------------------3-3-------------------------------------------|
G|-7-7-7-7-7-7-7-7-7-7-7-7-2-2-0-2-2-2-2-2-2-2-2-7-7-7-7-7-7-7-7-7-7-7-7-----|
D|-7-7-9-7-7-9-7-7-9-7-7-9-2-2-0-0-2-2-2-2-2-2-2-7-7-9-7-7-9-7-7-9-7-7-9-----|
A|-5-5-5-5-5-5-5-5-5-5-5-5-0-2-----0-0-0-0-0-0-0-5-5-5-5-5-5-5-5-5-5-5-5-----|
E|-----------------------------3-3-------------------------------------------|

e|-3-3-----------------------------------------------------------------------|
B|-3-0-3-3-------------------------------------------------------------------|
G|-0-0-0-0-------------------------------------------------------------------|
D|-0-0-2-0-------------------------------------------------------------------|
A|-2-0-3-2-------------------------------------------------------------------|
E|-3-2-----------------------------------------------------------------------|

solo 1

e|---------------------------------------------------------------------------|
B|--------------------------8-5----------------------------------------------|
G|-5b-------7-5b-------7-6b-----8-7-5----------------------------------------|
D|----7-7-5------7-7-5----------------7-5------------------------------------|
A|----------------------------------------7-6-5-3-3p0-5p0-3p0-5p0-3p0-5p0----|
E|---------------------------------------------------------------------------|
[ Tab from: http://www.guitartabs.cc/tabs/q/queen/tie_your_mother_down_tab_ver_3.html ]
e|---------------------------------------------------------------------------|
B|---------------------------------------------------------------------------|
G|---------------------------------------------------------------------------|
D|-------------------------------------------------------------5---5-7-------|
A|-3p0-5p0-3p0-5p0-3p0-5p0-3p0-5p0-3p0-5p0-3p0-5p0-3p0-5p0-5-7---7-----7~----|
E|---------------------------------------------------------------------------|

e|---------------------------------------------------------------------------|
B|------------------------------------12b-12b-12-10-12-----------------------|
G|----------------11-11b-11-9-11-9-11----------------------------------------|
D|-5-0-7-0----9-9-------------11---------------------------------------------|
A|---------7~----------------------------------------------------------------|
E|---------------------------------------------------------------------------|

e|-3\\\\\\\\\\\\\\14-3\\\\\\\\\\\\\\14-14-------17-15------------------------|
B|-3\\\\\\\\\\\\\\14-3\\\\\\\\\\\\\\14----16-17-------17-15-13---------------|
G|-3\\\\\\\\\\\\\\14-3\\\\\\\\\\\\\\14-------------------------12-14---------|
D|-3\\\\\\\\\\\\\\---3\\\\\\\\\\\\\\-----------------------------------------|
A|---------------------------------------------------------------------------|
E|---------------------------------------------------------------------------|

e|-3\\\\\\\\\\\\\\14-3\\\\\\\\\\\\\\14---------------------------------------|
B|-3\\\\\\\\\\\\\\14-3\\\\\\\\\\\\\\14----12-------12-------12-------12------|
G|-3\\\\\\\\\\\\\\14-3\\\\\\\\\\\\\\14-------14bp0----14bp0----14bp0----14bp0|
D|-3\\\\\\\\\\\\\\---3\\\\\\\\\\\\\\-----------------------------------------|
A|---------------------------------------------------------------------------|
E|---------------------------------------------------------------------------|

e|---------------------------------------------------------------------------|
B|----12-------12-------12-------12-------12-------12-------12-------12------|
G--------14bp0----14bp0----14bp0----14bp0----14bp0----14bp0----14bp0----14bp0|
D|---------------------------------------------------------------------------|
A|---------------------------------------------------------------------------|
E|---------------------------------------------------------------------------|

e|--------------------------------------------------3\\\\\\\\\\\\\\14--------|
B|--------------------------------------------------3\\\\\\\\\\\\\\14--------|
G|-7-7- 7-7-7- 7-7-7- 7-7-7- 7-7-7- 7-7-7- 7-7-7- 7-3\\\\\\\\\\\\\\14--------|
D|-7-7-11-7-7-11-7-7-11-7-7-11-7-7-11-7-7-11-7-7-11-3\\\\\\\\\\\\\\----------|
A|-9-9- 9-9-9- 9-9-9- 9-9-9- 9-9-9- 9-9-9- 9-9-9- 9--------------------------|
E|---------------------------------------------------------------------------|

e|-3\\\\\\\\\\\\\\14-14-14-14-14-14-14---------------------------------------|
B|-3\\\\\\\\\\\\\\14-14-14-14-14-14-14---------------------------------------|
G|-3\\\\\\\\\\\\\\14-14-14-14-14-14-14---------------------------------------|
D|-3\\\\\\\\\\\\\\-----------------------------------------------------------|
A|--------------------------------------0-0-2-2-3-4--------------------------|
E|---------------------------------------------------------------------------|

solo2

e|---------------------------------------------------------------------------|
B|--------------------------8-5----------------------------------------------|
G|-5b-------7-5b-------7-6b-----8-7-5----------------------------------------|
D|----7-7-5------7-7-5----------------7-5------------------------------------|
A|----------------------------------------7-6-5-3-3p0-5p0-3p0-5p0-3p0-5p0----|
E|---------------------------------------------------------------------------|

e|---------------------------------------------------------------------------|
B|-------------------------------------------------------------2-------------|
G|-------------------------------------------------------------2-------------|
D|-------------------------------------------------------------2-------------|
A|-3p0-5p0-3p0-5p0-3p0-5p0-3p0-5p0-3p0-5p0-3p0-5p0-3p0-5p0-5~--0-------------|
E|---------------------------------------------------------------------------|

verse x5
pre-chorus part1
pre-chorus part2
chorus
verse x3
pre-chorus part1
pre-chorus part2
chorus
verse
solo1
chorus
verse
solo2

| b  bend up
| /  slide up
| \  slide down
| h  hammer-on
| p  pull-off
| ~  vibrato
| +  harmonic
| x  Mute note
===============================================================================
Comments