Queen - Tie Your Mother Down Chords & Tabs

 

Tie Your Mother Down Chords & Tabs

Queen Chords & Tabs

Version: 1 Type: Tab 1 rating
1 star 2 stars 3 stars 4 stars 5 stars
comments

Tie Your Mother Down Tab

   
#----------------------------------PLEASE NOTE---------------------------------#
#This file is the author's own work and represents their interpretation of the #
#song. You may only use this file for private study, scholarship, or research. #
#------------------------------------------------------------------------------#
#

                          Queen: Tie Your Mother Down
                             Live Killers version

riff A
|-------------|------|-3-----2---------------|-------|   0///  
|-------------|------|-3-----3-----1---------|-------|   ///0 : repeat last  
|(2)--2-----2-|--0/--|-0-----2-----0-----0---|-0///--|          three bars
|-2--(2)---(2)|--/0--|-0-----0-----2-----0---|-///0--| 
|-0-----3p0(0)|------|-------------3-----2---|-------|  
|-------------|- 5X -|-----------------------|- 4X --| 

riff B
|--------------------------------------------------|
|--------------------------------------------------|
|--------------------------------------------------|
|--9--------9-11--9----9-11--9-----9-11--9---9-11--|
|2/7--------7-7---7----7-7---7-----7-7---7---7-7---|
|--------------------------------------------------|
riff C
|------------------------|
|------------------------|
|------------------------|
|-9---1212--1212--1212\--|
|-7---1010--1010--1010\--|
|------------------------|

riff D
|-------------|------|-------------------------------------|
|-------------|------|-------------------------------------|
|(2)--2-----2-|--0/--|-2-----------------------------------|
|-2--(2)---(2)|--/0--|-2-----------2-----2-----------------|
|-0-----3p0(0)|------|-0---10\-----0-----2-----3-----4-----|
|-------------|- 4X -|-------------------------------------|

 riff E 
|------------------------------------------------|
|------------------------------------------------|
|-2---2-4-----2---2-4-----2--2-4---4-2---2-4---2-|
|-0---0-0-x-x-0---0-0-----0--0-0---0-0---0-0---0-|
|------------------------------------------------|
|------------------------------------------------|
  riff F
|------------------------------------------------|
|------------------------------------------------|
|-------2---2-0---0-2------------2-----2---2-2---|
|-2-----2---2-0---0-0------------2-----2---2-2---|
|-0---0-----------------3b-0---0-----0-----0-0---|
|------------------------------------------------|

|------------------------|----|
|------------------------|----|
|-2-2---2-4-----2---2-2--|-0/-|
|-0-0---0-0-----0---0-0--|-/0-|
|------------------------|----|
|------------------------|----|

G D C G

riff A (with  % 5X, % 2X)
riff B
riff C
riff D (with  % 1X  )
riff E 
riff F
riff E
G D C G
riff A (with % 5x, - )
G D C G


solo
|---------------------------------------------------------|
|-7b8---------------7-7b8---------------7-7b8---7-7b8-----|
|-7b9---------------7-7b9---------------7-7b9---7-7b9-----|
|---------------------------------------------------------|
|---------------------------------------------------------|
|---------------------------------------------------------|

G D C G

|------------------------------------------|
|-b8r7-5-7---5-----------b8r7-5-7---7b9----|
|-b9r7-5-7---5-----------b9r7-5-7---7b8----|
|-----------------7-5---7------------------|
|------------------------------------------|
|------------------------------------------|

|-------------------------------------|
|-8r7-5-7--5--------------------------|
|-9r7-5-7--5--------------------------|
|--------------7-5--------------------|
|------------------7-5-3-5-3---3/10\--|
|----------------------------5--------|
                                      "slide on"
|------------------------------------->>>>>>>>---|
|------------------------------------->>>>>>>>---|
|-9---7-7-----9----------------------->>>>>>>>---|
|-9---7-7-----9-------12---14----9---->>>>>>>>---|
|-7---5-5---0-7-------10---12----7---->>>>>>>>---|
|------------------------------------->>>>>>>>---|

|------------------------------------|
|/14--14--14--14\--/14--14--14--14\--|
|/14--14--14--14\--/14--14--14--14\--|
|/14--14--14--14\--/14--14--14--14\--|
|------------------------------------|
|------------------------------------|
                        |  |  |  |  |  |  |  |  |  |  |  |  |  |
|------17---/15------------------------------------------------------|
|-15/17----------15-14\-12/14----------------------------------------|
|-----------------------------14----12-------------------------------|
|--------------------------------------14\12----10/12----------------|
|-----------------------------------------------------12----12\10----|
|--------------------------------------------------------------------|
[ Tab from: http://www.guitartabs.cc/tabs/q/queen/tie_your_mother_down_tab.html ]
|-------------------------------------|
|/14--14--14--14\---/14--14--14--14-\-|
|/14--14--14--14\---/14--14--14--14-\-|
|/14--14--14--14\---/14--14--14--14-\-|
|-------------------------------------|
|-------------------------------------|

  .   .        .              .       . :pick
|--------------------------------------------|
|----14\12/-14\12-/14\12-/14\12--/14-12/14---|
|----14\12/-14\12-/14\12-/14\12--/14-12/14---|
|-12-14\12/-14\12-/14\12-/14\12--/14-12/14---|
|--------------------------------------------|
|--------------------------------------------|

 E       G A E      G

|--------------------------------------------|
|--/14---\\--/14--14--\\-//17--17-/17-/17\---|
|--/14---\\--/14--14--\\-//17--17-/17-/17\---|
|--/14---\\--/14--14--\\-//17--17-/17-/17\---|
|--------------------------------------------|
|--------------------------------------------|

     "slide off"
|----->>>>>>>>>---|
|----->>>>>>>>>---|
|-2--->>>>>>>>>---|
|-0--->>>>>>>>>---|
|----->>>>>>>>>---|
|----->>>>>>>>>---|


riff E

G D C G

riff A (with % 5X, - )
  | | | | | | | | | | | | | | | | | | | | | | | | | | | | | | | | | | |
|-----------------------------------------------------------------------|
|-----------4-5-----4---5-2---4-5---2-4---5-7---4-5-----4---5-7---4-5---|
|-----------4-5-----4---5-2---4-5---2-4---5-7---4-5-----4---5-7---4-5---|
|-2---------4-5-----4---5-2---4-5---2-4---5-7---4-5-----4---5-7---4-5---|
|-0-----------------------------------------0---------------------------|
|-----------------------------------------------------------------------|

G D C G

|-----------------------------------------------------------------------|
|-----4-5---2-4---5-7-----5-----7-----0-----2-----5-----7---------------|
|-2---4-5---2-4---5-7-----5-----7-----0-----2-----5-----7---------------|
|-2---4-5---2-4---5-7-----5-----7-----0-----2-----5-----7---5---5-7-5---|
|-0-------------------------------------------------------------------7-|
|-----------------------------------------------------------------------|

G D C G

riff A (with % 5X, - )

D
A

end

solo for the studio version
|-----------------------------------------------------------|
|-5b----------------------------------------------8b10--8v--|
|-5b--------------7--5b6r5--------------7--6-b6r5-----------|
|-------7--7----5-------------7--7----5---------------------|
|-----------------------------------------------------------|
|-----------------------------------------------------------|

|---------------------------------------------------------------------|
|-5-------------------------------------------------------------------|
|---8-7-5--7p5--------------------------------------------------------|
|--------------7p5----------------------------------------------------|
|------------------7-6-5-3p0h3vvvp0-5p3p0h3v---5p3p0h3v---5p3p0h3v----|
|---------------------------------------------------------------------|

|--------------------------------------------------------|
|--------------------------------------------------------|
|-----------------------------------------------5--------|
|---------------------------------------5---5-7----------|
|-5p0-0-5p0-3p0-5p0-3p0-5p0-3p0-5p0-5-7---7--------7vv---|
|--------------------------------------------------------|

|--------------------------------------------------------|
|--------------------------------------------------------|
|-(0)----------------------------11b13__r11p9-11--9----9-|
|-(0)-5--0-7--5b------------9-9---------------------11---|
|----------------7vv-\/11--------------------------------|
|--------------------------------------------------------|

|----------------------------|
|-12b14_12b13_rp10-12----10--|
|----------------------------|
|----------------------------|
|----------------------------|
|----------------------------|

slide on
|----------------------------------------|
|-----14---14-14_\-------14-14---14-14---|
|-----14---14-14_\-------14-14---14------|
|-/14-14---14-14_\5/14---14-14---14------|
|----------------------------------------|
|----------------------------------------|

|-14-------17-------17\15-----------------------------------------|
|----16/17-------17---------17_\15---15\13---13/14----------------|
|---------------------------------------------------14---14\12----|
|--------------------------------------------------------------12-|
|-----------------------------------------------------------------|
|-----------------------------------------------------------------|

|------------------------------------------|
|-13/14---14-14---14--------------------14-|
|-13/14---14-14---14--------------------14-|
|-13/14---14-14---14-14\2---2/14---14---14-|
|------------------------------------------|
|------------------------------------------|

|-------14-------------------------------------------|
|-14\10/--\12/_14\-12---14-12/_14-12/14------14\-----|
|--------------14-------14-12/_14-12/14------14\-----|
|-----------------------------------------14---\-----|
|----------------------------------------------------|
|-------------------------------------------------0--|
transcribed by Pinter Denes
Comments