Queen - Stone Cold Crazy Chords & Tabs

 

Stone Cold Crazy Chords & Tabs

Queen Chords & Tabs

Version: 1 Type: Tab 0 ratings
1 star 2 stars 3 stars 4 stars 5 stars
comments

Stone Cold Crazy Tab

   
#----------------------------------PLEASE NOTE---------------------------------#
#This file is the author's own work and represents their interpretation of the #
#song. You may only use this file for private study, scholarship, or research. #
#------------------------------------------------------------------------------#
#

                                      Queen: Stone Cold Crazy
                                      1974/Sheer Heart Attack
|----------------------------------|
|----------------------------------|
|----------------------------------|
|----------------------------------|
|-F.B.-----------------------------|
|---trem down/release 4 times--|

left and right guitars             left guitar
|-----------------------------|----|----|----------------------------------|
|-----------------------------|----|----|----------------------------------|
|--------3--------------------|-0/-|-0/-|----------------------------------|
|--------3--------------------|-/0-|-/0-|--3555530-------------------------|
|--------1--------1333-2-3-4-5|----|----|---------1--------1333-2-3-4-5----|
|-1333331-----1333------------|----|----|--------------1333------------3\--|
 \--------------\/----------------/|right guitar
              riff A               |----------------------------------------*
                                   |----------------------------------------*
                                   |----------------------------------------*
                                   |-3555530---------------------3555530----*
                                   |--------1--------1333-2-3-4-5-------1---*
                                   |-------------1333-----------------------*
*-------------------------|
*-------------------------|
*---------3555-4-5-6-7----|
*-----3555------------5\--|
*-3535--------------------|
*-------------------------|

two guitars/riff B
|----------------|
|-5----5p3---5---|
|-5----5p3---5---|
|-5----5p3---5---|
|-3----3-----3---|
|----------------| 

riff A

two guitars:
|----------------------------------------------------|
|----------------------------------------------------|
|----------------------------------4--2--------------|
|-5---7--8-9--\--------------------------4--2--1-----|
|--------------2---2---2---2---2------------------2\-|
|----------------------------------------------------|

1-st solo:
|-----------------------------------------------------------------------------|
|-10b12-----12r10p7-------------------------------------------------------7b--|
|-------------------10p9p7---9-7---------(7)-(7)------------------9p7-----7b--|
|--------------------------9-----9--------7---7---------------7-------9-------|
|-------------------------------------7h9---9---9\7-5-7p5-7/9---9-------------|
|-----------------------------------------------------------------------------|
[ Tab from: http://www.guitartabs.cc/tabs/q/queen/stone_cold_crazy_tab.html ]
left and right guitars         left guitar
|-----------------------------|------------------------------------|
|-----------------------------|------------------------------------|
|--------3--------------------|--------3---------------------------|
|--------3--------------------|--------3---------------------------|
|--------1--------1333-2-3-4-5|--------1-----------1333-2-3-4-5----|
|-1333331-----1333------------|-1333331--------1333------------3\--|
                              |right guitar
                              |------------------------------------|
                              |------------------------------------|
                              |--------3------------3555-4-5-6-7---|
                              |--------3-----3--3555------------5\-|
                              |--------1--335--5-------------------|
                              |-1333331----------------------------|

left guitar                        two guitars
|----------|----------------------|----------|-----------------------------*
|------5---|-3--------------------|----------|-3---4----4p2--4----4p2-4----*
|------5---|-3--------------------|----------|-3---4----4p2--4----4p2-4----*
|------5---|-3--------------------|  riff B  |-3---4----4p2--4----4p2-4----*
|..PM..----|-3---3p1-3p1----------|----------|-1---2----2----2----2---2----*
|-33333----|-------------3p1-3-3--|----------|-----------------------------*
|right guitar                     | 
|           ----------------------|          *------------------------|
|           --3---------5---------|          *-4p2--------------------|
|           --3---------5---------|          *-4p2--4---2-------------|
|           --3---------5---------|          *-4p2---------4---2--0---|
|           --3---------3---------|          *-2--------------------2-|
|           ----------------------|          *------------------------|

2-nd solo / 1'23"
|-----------------------------------------------|
|-----------------------------------------------|
|-----------------------------------------------|
|---------------------------79979--7------------|
|-----0-0-0h2---5---5/9-9-------------9--7--5---|
|-0h2-----------------------------------------7-|
 
     delay on
|-----------------------------------------------10b12---|
|---------------------10b12-----12r10p7-----------------|
|-9b11---9b11r9---7--------------------10p9p79p7--------|
|-------------------------------------------------------|
|-------------------------------------------------------|
|-------------------------------------------------------|

|-12r10p7-------77-------------------------------------------|
|--------10b12----10b12r10p710p77----------------------------|
|--------------------------------10p9p79p79b11--7------------|
|--------------------------------------------------9--7------|
|--------------------------------------------------------9\/-|
|------------------------------------------------------------|

|-----------------------------------------------------------------------------|
|--------------------------------------------------------------------20b22__v-|
|-12----12----13----13---14----15----16----17---18---20---21---21-------------|
|---1412--1412--1513---13--1614--1715--1816---17---18---19---19--20-----------|
|-----------------------------------------------------------------------------|
|-----------------------------------------------------------------------------|


two guitars      
|----------|
|----------|
|----------|
| riff A   |
|-------3\-|
|----------|

right guitar/1'59"
|------------|
|------------|
|------------|
|------------|
|------------|
|-xxxxxx.....|

two gtrs.
|----------------|
|----------------|
|----------------|
|-5  riff B  -5--|
|-5-----------5--|
|-3-----------3--|
Transcribed by Pinter Denes
Comments