Queen - Seven Seas Of Rhye Chords & Tabs

 

Seven Seas Of Rhye Chords & Tabs

Queen Chords & Tabs

Version: 4 Type: Tab 0 ratings
1 star 2 stars 3 stars 4 stars 5 stars
comments

Seven Seas Of Rhye Tab

   
----------------------------------------------------------------------------
			     Seven seas of rhye - QUEEN
-------------------------------------------------------------------------------
Tabbed by:Croat
Email: HNKCroat@hotmail.com

Tuning:normal

intro: 
first just d5 chord  5x
d5
|-
|-
|-
|7
|5
|-

opening thing
e|-----17b--17~-----14b--14~-----12~~~----------------------|
B|----------------------------------------------------------|
G|----------------------------------------------------------|
D|----------------------------------------------------------|
A|----------------------------------------------------------|
E|----------------------------------------------------------|


main rhythm
[ Tab from: http://www.guitartabs.cc/tabs/q/queen/seven_seas_of_rhye_tab_ver_4.html ]
e|----------------|------|-------------|--------------------------|
B|----------------|------|-------------|--------------------------|
G|----xx----------|------|----xx-------|------xx----xx------------|
D|--7-xx----------|------|----xx-------|------xx----xx------------|
A|--5-xx----------|---7--|--5-xx-------|----7-xx--7-xx--7777------|
E|----xx----------|---5--|--3-xx-------|----5-xx--5-xx--5555------|
           12x                   12x
e|----------------------------------------------------------------|
B|----------------------------------------------------------------|
G|----------------------------------------------------------------|
D|----9-----------------------------------------------------------|
A|----7----7------------------------------------------------------|
E|---------5------------------------------------------------------|









| /  slide up
| \  slide down
| h  hammer-on
| p  pull-off
| ~  vibrato
| +  harmonic
| x  Mute note
===============================================================================
Comments