Queen - Play The Game Chords & Tabs

 

Play The Game Chords & Tabs

Queen Chords & Tabs

Version: 2 Type: Tab 0 ratings
1 star 2 stars 3 stars 4 stars 5 stars
comments

Play The Game Tab

Queen: Play The Game

two gtrs/51"
|--------------------------------------------|
|--------------------------------------------|
|--------------------------------------------|
|-8---10-----------------------------8--10---|
|-8---10-----------------------------8--10---|
|-6---8----7---6--5--4---3---4---\1--6--8----|


solo/middle/57"
|----------------------------------|
|-16b_18vv---16-15-13--15----------|
|--------------------15--15b17vvvv-|
|----------------------------------|
|----------------------------------|
|----------------------------------|

two gtrs 1'38"
|-------------------------|
|-------------------------|
|-------------------5_\---|
|-10-------------5--5_\---|
|-10-------------5--3_\---|
|-8----7---6--5--3-----1--|


two guitars
|------------------------------------------------|
|------------------------------------------------|
|------------------------------------------------|
|-6--8-------------------------------------------|
|-6--8-------------------------------------------|
|-4--6--887-887-887-887-6----554-554-5-7-8-5-4---|

solo/2'22"
|-------------------------------------------------------------------8b10--10r8v---|
|-------------6--8--6--8-0------------------10b12--1010v--------------------------|
|------7b9-----------------7b9-7v--------------------------7b9-7-5----------------|
|-5v--------------------------------9p8-7-----------------------------------------|
|---------------------------------------------------------------------------------|
|---------------------------------------------------------------------------------|
[ Tab from: http://www.guitartabs.cc/tabs/q/queen/play_the_game_tab_ver_2.html ]
|-------------------------------------------------------___________________-|
|------------------20b22--2017--------------------------9p8h9-8p7h8-7p6-----|
|-19b21vvr-----------------(0)21r19p17----------7b9-7(5)----------------8p5-|
|---------1717v-----------------------1920vv\-------------------------------|
|---------------------------------------------------------------------------|
|---------------------------------------------------------------------------|
|---------------------------------------------------------------------------|

2'54"                   2'59"             3'02"              
|---------------------|------------------|-----------------------------13----------------------------|
|---------------------|-8b10--8p5--------|-15b16-15____b16r15h16p15p13---16p15p13-15p13----13--------|
|-7b9--7b9__br7p5---5-|-----------7---5--|----------------------------------------------15----15b17v-|
|-----------------7---|-------------7----|-----------------------------------------------------------|
|---------------------|------------------|-----------------------------------------------------------|
|---------------------|------------------|-----------------------------------------------------------|


|-14b16----b16--14--13-11-----------------------------------202020----------------|
|-------------------------14------------------------20b22________-b22b22v---b21v--|
|----------------------------13v---0-4/17-17-19b21v-------------------------------|
|---------------------------------------------------------------------------------|
|---------------------------------------------------------------------------------|
|---------------------------------------------------------------------------------|

|--------------------------------------|
|--------------------------------------|
|-----------11_r9b11-9v---11r9p7-6-7---|
|---------5----------------------------|
|-3---5/7------------------------------|
|--------------------------------------|

Comments