Queen - One Vision Chords & Tabs

 

One Vision Chords & Tabs

Queen Chords & Tabs

Version: 5 Type: Tab 0 ratings
1 star 2 stars 3 stars 4 stars 5 stars
comments

One Vision Tab

   One Vision - Queen
   Tabbed by Csaba Horvath from Hungary.
   2000.02.01.
[ Tab from: http://www.guitartabs.cc/tabs/q/queen/one_vision_tab_ver_5.html ]
   Intro:
       |   |   |   |       |   |   |   |       |   |   |   |
  e||-------------------|-------------------|-------------------|
  H||-------------------|-------------------|-------------------|
  G||--7----------------|--7----------------|--5----------------|
  D||--7---------7---7--|--7-------5-5---5--|--5-------5-5---5--|
  A||--5---------4---5--|--5-------3-2---3--|--3-------3-2---3--|
  E||-------------------|-------------------|-------------------|


      |   |   |    |
  e|--------------------||
  H|--------------------||
  G|--------------------||
  D|--5-----7----7---7--||
  A|--3-----4----5---4--||
  E|--------------------||
Comments