Queen - One Vision Chords & Tabs

 

One Vision Chords & Tabs

Queen Chords & Tabs

Version: 2 Type: Bass Tab 0 ratings
1 star 2 stars 3 stars 4 stars 5 stars
comments

One Vision Bass Tab

One Vision 
By QUEEN

Verse
         
A-----2--3-3-------5---4--5-5---2--3-3--2-2--3-3--0-2-3--0-2-3-4
E---------------------------------------------------------------

A--5---4--5-5---2--3-3--2-2--3-3--2-3-2-3-2-3-4
E----------------------------------------------
[ Tab from: http://www.guitartabs.cc/tabs/q/queen/one_vision_btab_ver_2.html ]
Chorus 1st part  x4

A-0-0-0----
E-------020

Chorus 2nd part x4

A-3-3-3----
E-------353

Chorus end

A--0--1--2--3
E------------

Untro

A--0--1--2--3-00-11-22-33
E------------------------


Trascripted By Marco Campisano 
Bestemmia's Bass player

Comments