Queen - Now Im Here Chords & Tabs

 

Now Im Here Chords & Tabs

Queen Chords & Tabs

Version: 5 Type: Tab

Now Im Here Tab

-----------------------------------------------------------------------------
			     Now I'm Here - Queen
-----------------------------------------------------------------------------
Tabbed by: Me
[ Tab from: http://www.guitartabs.cc/tabs/q/queen/now_im_here_tab_ver_5.html ]
Tuning: Standard
Intro
           x6
e|----------|---------------------------------------------------------------|
B|----------|---------------------------------------------------------------|
G|----------|---------------------------------------------------------------|
D|-77777777-|-55555555-44444444-33333333-33333557-77777777-77777777---------|
A|-55555555-|-33333333-22222222-11111111-11111335-55555555-55555555---------|
E|----------|---------------------------------------------------------------|
      
           x2
e|----------|-------------------------------------------------------------|
B|----------|-------------------------------------------------------------|
G|----------|-------------------------------------------------------------|x2
D|-77777777-|-55555555-44444557-------------------------------------------| 
A|-55555555-|-33333333-22222335-------------------------------------------|
E|----------|-------------------------------------------------------------|
Riff 1
e|--------------------------------------------------------------------------|
B|-2--3--2--3--4--5--4--5---------------------------------------------------|
G|-2--2--2--2--4--4--4--4---------------------------------------------------|
D|-2--2--2--2--4--4--4--4---------------------------------------------------|
A|-0--0--0--0--2--2--2--2---------------------------------------------------|
E|--------------------------------------------------------------------------|
Riff 2
|--------------------------------------------------------------------|
|--------------------------------------------------------------------|
|--------------------------------------------------9-----9---9--7----|
|-----2-----4-2--------7-7-----4-4-----------------9-----9---9--7-7--|
|-----------2-0--------5-5-7---2-2--4--------5-7---7-7-7-7-7-7--5-7--|
|0-34---0-------340--------5--------2--5-6-7-----0-0-0-0-0-0-0----5--|

Verse
e|--------------------------------------------------------------------------|
B|--------------------------------------------------------------------------|
G|--------------------------------------------------------------------------|
D|---------------------9-9-11-9--9-7------------------------9-9-11-9--9-----|
A|-9-9-11-9--9-9-11-9--7-7--7-7--7-5-7--9-9-11-9--9-9-11-9--7-7--7-7--7-----|
E|-7-7--7-7--7-7--7-7----------------5--7-7--7-7--7-7--7-7------------------|

1st Chorus
e|--------------------------------------------------------------------------|
B|--------------------------------------------------------------------------|
G|--------------------------------------------------------------------------|
D|---9-------7-7-------9--------11-11---------13-------7-7------------------|
A|-9-7--7-7--5-5--9-9--7--11-11--9--9--13-13--11--14~--5-5-5~---------------|
E|-7----5-5-------7-7------9--9--------11-11------12~------3~---------------|
Riff 3
e|--------------------------------------------------------------------------|
B|-4--5--4--5---------------------------------------------------------------|
G|-4--4--4--4---------------------------------------------------------------|
D|-4--4--4--4---------------------------------------------------------------|
A|-2--2--2--2---------------------------------------------------------------|
E|--------------------------------------------------------------------------|
2nd Chorus
e|--------------------------------------------------------------------------|
B|--------------------------------------------------------------------------|
G|--------------------------------------------------------------------------|
D|---7-------5-5-------7---------9--9--------11--------9-9------------------|
A|-7-5--5-5--3-3--7-7--5---9--9--7--7--11-11--9---12~--7-7-7~---------------|
E|-5----3-3-------5-5------7--7---------9--9------10~------5~---------------|

Song Order:
Intro
Riff 1
Riff 2
Verse
1st Chorus
Riff 3
Riff 2
Verse
2nd Chorus
Solo
2nd Chorus
Variation of Intro
Variation of Riff 2
Solo