Queen - Now Im Here Chords & Tabs

 

Now Im Here Chords & Tabs

Queen Chords & Tabs

Version: 4 Type: Tab 0 ratings
1 star 2 stars 3 stars 4 stars 5 stars
comments

Now Im Here Tab

This sounds pretty accurate to me, so here you go. I'm too lazy to put the duration of
all the notes but I've put every note in the right measure. Have fun.

Standard Tuning
Tempo-120 bpm

* = palm mute
x = muffled note


"Here I stand...."

Guitar I
                  x3
|------------------|----------------|----------------|----------------|
|------------------|----------------|----------------|----------------|
|------------------|7---7-----------|----------------|----------------|
|7-7-7-7-7-7-7-7-7-|5---7-7-7-7-7-7-|5-5-5-5-5-5-5-5-|4-4-4-4-4-4-4-4-|
|5-5-5-5-5-5-5-5-5-|5-5-5-5-5-5-5-5-|3-3-3-3-3-3-3-3-|2-2-2-2-2-2-2-2-|
|------------------|----------------|----------------|----------------|
 * * * * * * * * *  * * * * * * * *  * * * * * * * *  * * * * * * * *


|----------------|----------------|----------------|----------------|
|----------------|----------------|----------------|----------------|
|----------------|----------------|----------7---7-|----------------|
|3-3-3-3-3-3-3-3-|3-3-3-3-3-5-5-7-|7-7-7-7-7-5---7-|7-7-7-7-7-7-7-7-|
|1-1-1-1-1-1-1-1-|1-1-1-1-1-3-3-5-|5-5-5-5-5-5-5-5-|5-5-5-5-5-5-5-5-|
|----------------|----------------|----------------|----------------|
 * * * * * * * *  * * * * * * * *  * * * * * * * *  * * * * * * * *

|----------------|--------------|
|----------------|--------------|
|----------------|--------------|
|----------------|--------------|
|5-5-5-5-5-5-5-5-|4-4-4-4-4-4-4-|
|3-3-3-3-3-3-3-3-|2-2-2-2-2-2-2-|
 * * * * * * * *  * * * * * * *

[ Tab from: http://www.guitartabs.cc/tabs/q/queen/now_im_here_tab_ver_4.html ]
Guitar II
                  x3
|------------------|----------------|----------------|----------------|
|------------------|----------------|----------------|----------------|
|------------------|----------------|----------------|----------------|
|7-7-7-7-7-7-7-7-7-|7-7-7-7-7-7-7-7-|5-5-5-5-5-5-5-5-|4-4-4-4-4-4-4-4-|
|5-5-5-5-5-5-5-5-5-|5-5-5-5-5-5-5-5-|3-3-3-3-3-3-3-3-|2-2-2-2-2-2-2-2-|
|------------------|----------------|----------------|----------------|
 * * * * * * * * *  * * * * * * * *  * * * * * * * *  * * * * * * * *


|----------------|----------------|----------------|----------------|
|----------------|----------------|----------------|----------------|
|----------------|----------------|----------------|----------------|
|3-3-3-3-3-3-3-3-|3-3-3-3-3-5-5-7-|7-7-7-7-7-7-7-7-|7-7-7-7-7-7-7-7-|
|1-1-1-1-1-1-1-1-|1-1-1-1-1-3-3-5-|5-5-5-5-5-5-5-5-|5-5-5-5-5-5-5-5-|
|----------------|----------------|----------------|----------------|
 * * * * * * * *  * * * * * * * *  * * * * * * * *  * * * * * * * *

|----------------|--------------|
|----------------|--------------|
|----------------|--------------|
|----------------|--------------|
|5-5-5-5-5-5-5-5-|4-4-4-4-4-4-4-|
|3-3-3-3-3-3-3-3-|2-2-2-2-2-2-2-|
 * * * * * * * *  * * * * * * *


"...Just a new man..."


Guitar I & II

(note: these chords last one measure each, but I grouped them together based on repitition)
             x2           x2 
|------------|-------------|                                                
|2------3----|4------5-----|                                               
|2------0----|4------4-----|  
|2------2----|4------4-----|                                                
|0------0----|2------2-----|                                                
|------------|-------------|


"She made me live again" is sung during the last chord, then Guitar I & II play this:



|-------------|-------------|--------------|------------------|
|-------------|-------------|--------------|------------------|
|-------------|-------------|7-x-7---------|------------------|
|-------2---x-|-4--2--------|7-x-7-----4-x-|4-----------------|
|-----------x-|-2--0--------|5-x-5-7---2-x-|2------------5-7--|
|0--3-4---0---|-------3-4-0-|------5-------|---2---5-6-7------|


|-----------------|--------|
|-----------------|--------|
|---9-----9----9--|-7-x----|
|---9-----9----9--|-7-x-7--|
|---7-7-7-7--7-7--|-5-x-7--|
|0--0-0-0-0--0-0--|-----5--|
      * *    *

End of intro
Comments