Queen - Now Im Here Chords & Tabs

 

Now Im Here Chords & Tabs

Queen Chords & Tabs

Version: 2 Type: Tab 0 ratings
1 star 2 stars 3 stars 4 stars 5 stars
comments

Now Im Here Tab

Hey guys........my 1st tab so bear with me........
[ Tab from: http://www.guitartabs.cc/tabs/q/queen/now_im_here_tab_ver_2.html ]
E|-----------------------------------------------------|
a|-5-5-5-----5-5----0-0-0-0-0---0-0-0-0-0---1-1-1-1-1--| (This isnt the
d|-7-7-7-----7-7----3-3-3-3-3---2-2-2-2-2---0-0-0-0-0--| total amount of
g|------6-7-7-------------------------------0-0-0-0-0--| times you need to
b|-----------------------------------------------------| strum....its
e|-----------------------------------------------------| just an example!!)


E|-------------------------------------------|
a|-5-5-5-----5-5----0-0-0-0-0---0-0-0-0-0----|
d|-7-7-7-----7-7----3-3-3-3-3---2-2-2-2-2----|
g|------6-7-7--------------------------------|
b|-------------------------------------------|
e|-------------------------------------------|

There you go......it's not fantastic but its my 1st try.
Any queries....email me at the_dameister@hotmail.com
~#Dan#~
Comments