Queen - My Baby Does Me Chords & Tabs

 

My Baby Does Me Chords & Tabs

Queen Chords & Tabs

Version: 1 Type: Bass Tab 0 ratings
1 star 2 stars 3 stars 4 stars 5 stars
comments

My Baby Does Me Bass Tab

Song title: My baby does me
Artist: Queen
Bass performance by: John Deacon
words and music by: John Deacon

written and transcribed by : Riccardo Bertinelli
e-mail address: mikelepond@hotmail.com



That's not a difficult song, the bass has a very nice sound!!!

Intro  Riff A(X10)
G|---------------------------|
D|---------------------------|
A|-----3-----3----------3----|
E|--------------3---6--------|

  Verse Riff A                Riff B
G|--------------------------|--------------------------|-------------------------|--------|
D|--------------------------|--------------------------|-------------------------|--------|
A|-----3-----3----------3---|----6-----6----------6----|---8-----8-----------8---|--10~---|
E|--------------3---6-------|-------------6---8--------|------------8---11-------|--------|


G|---------------------|----------------------|-------------------------------|
D|---------------------|----------------------|-------------------------------|
A|---10---8--------8---|---8------------------|-------------------------------|
E|------------11-------|-------11---10---11---|---11---10---8---10---7---3~---|


G|----------------|------------|----------------|
D|----------------|------------|----------------|
A|---Riff-A(X5)---|---Riff-B---|---Riff-A(X4)---|
E|----------------|------------|----------------|
[ Tab from: http://www.guitartabs.cc/tabs/q/queen/my_baby_does_me_btab.html ]
   Chorus
G|---------------------------------------------------------------------------------|
D|----6--------------5--3----3-3---3---------5--------------------------6------6---|
A|-----------------------------------------------6---3------------3--6-------6-----|
E|---------3------------------------------------------------3--6-------------------|


G|----------------------------------------------------------------------|
D|---6-------6--5----------------------------------3-----5--5-5---------|
A|------6----------8---------6--7--8------------3-----3-----------------|
E|------------------------------------8--1-----------------------3\-/---|


G|--------------------------------|
D|---5--3-------------------------|
A|---------6--5--3--6--5--2-------|
E|---------------------------3~---|


G|-----------------------------------------------------------------------------------|
D|-------------------5--5---5-5-5---5---7--7---7-7-7---7---10--10---10-10-10---10/---|
A|---3---3-3-3-3-3-------------------------------------------------------------------|
E|-----------------------------------------------------------------------------------|

                       Be careful with this fill!!!
G|--------------------|--------------------|
D|---5--5---5---5--5--|---5-3---3----------|
A|--------------------|-------6---6-5-6-3--|
E|--------------------|--------------------|

   Outro(ad libitum)
G|-------------|
D|-------------|
A|--Riff-A-----|
E|-------------|

For the mistakes you may find e-mail me at my address.

Comments