Queen - Lost Opportunity Chords & Tabs

 

Lost Opportunity Chords & Tabs

Queen Chords & Tabs

Version: 2 Type: Tab 0 ratings
1 star 2 stars 3 stars 4 stars 5 stars
comments

Lost Opportunity Tab

   
Queen: Lost Opportunity
Released as B-side of I'm Going Slightly Mad

|----------------------12--|-----------------------------------------|
|-3-------2------------12--|-------------3---3----3---2-0-2----------|
|-4---4\2---2-0h1--//------|-----1---2/4---4------4---2-0-2-------2--|
|-2------------------------|-2---------------------------------2-----|
|-2------------------------|-2---------------------------------------|
|-0------------------------|-0---------------------------------------|

|-----------------------------------------0-----3--4--5--6--|
|-----------3---3-------------------0--------0--1--2--------|
|-0--1--2/4---4------------\2--h1------1-----2--3--4--------|
|----------------------2------------------------------------|
|-----------------------------------------------------------|
|-------------------0---------------------------------------|

|-7---5----------------------------------------------------7b9---|
|-------7-5--------------------5-7---5-h7--b8--b8--8r7p5---------|
|-----------7/8vv-----4---5--6-----6-----------------------------|
|----------------------------------------------------------------|
|----------------------------------------------------------------|
|----------------------------------------------------------------|

                                                   B7  
|-0------------------------------------------------------|
|-0--------3--p0------2-(0)------------------------------|
|-1----2/4-------2-------0h1-----------------2-----2---2-|
|-2--------------------------2----------0----------------|
|-2-------------------------------0-1-2---2-----2--------|
|-0------------------------------------------------------|

 E7             A  E
|-------------------------//---12---|
|---------3---------------//---12---|
|-0h1---2/-4----2--h1-----//--------|
|-----------------------------------|
|-----------------------------------|
|----------------------0------------|

  E7                           A   E
|---------------0--------0-------------------0----------------|
|--------3------------3-----3---------------------------------|
|----2/4---4-------4-----------4------------------------------|
|-----------------------------------------2-------2-----------|
|--------------------------------------2----------------------|
|-0---------------------------------0----------------0--2--4--|

  A               A7                             E             
|-------------------------------------------------------------0--0-----------|
|-------3---3-----------------------2-----2-3-4-/5-5-----5\3--3--3--3--------|
|----2----4---4-------2-4-2-------2-----2-2---------------------------4-2-h1-|
|----------------------------------------------------------------------------|
|-0---------------0-----------0----------------------------------------------|
|----------------------------------------------------------------------------|

 B7                               A
|-----------------------------------------------------------------------------|
|---------------------------------7b8--b8---5---5-----------------------------|
|-------------------4---7r6-4-----------------7-----7-------------------------|
|-2-----------------4----------------------------------r7-5----7---5----------|
|---2-2---------2-4-2--------------------------------------------7---7-5--5-7-|
|-----0---0-2/4----------------------------------------------------------7----|

 E           A   A# B7   
|----------------------------7---7-7-------|
|----------------------------7---7-7-------|
|------------------------8---8---8-8-------|
|------------------------9---9---9-9-------|
|------------------------9---9---9-9-------|
|-0--3b5-0---5--5-6--6-7-----7---7-7--7/17-|

solo:
|----------------------------------------------------------------|
|----------------------------------------------------------------|
|--------------------------12------------------------------------|
|-14v-------12-14-12-14v-------0--14v-------12-14-12-14----------|
|--------14------------------------------14----------------------|
|---------------------------------------------------------12\7/12|

|---------------------------|
|---------------------------|
|---------------------12b---|
|-14------12-14-12-14-------|
|------14-------------------|
|---------------------------|
[ Tab from: http://www.guitartabs.cc/tabs/q/queen/lost_opportunity_tab_ver_2.html ]
|----------------------------------------------------------------------------|
|----------------------------------------------------------------------------|
|-----------------12b------------12b------------12b------------12-14b16--b16-|
|----12-14-12-14------14--12-14------14--12-14------14--12-14----------------|
|-14-------------------------------------------------------------------------|
|----------------------------------------------------------------------------|

|-----------------------------------------------------------------------------|
|--------------------------15-------15-----------15--15\14__---------15______-|
|-14b16r14p12-14--12--14b16____14b16____14b16-------------14---14b16----14b16-|
|-----------------------------------------------------------------------------|
|-----------------------------------------------------------------------------|
|-----------------------------------------------------------------------------|

|----------------15b17---15-12--------------------------------------|
|-15\14--12--------------------12__\\\\-----------------------------|
|-----------14---------------------------9\\//14----12-13-----------|
|------------------------------------------------14-------14-13-12--|
|-------------------------------------------------------------------|
|-------------------------------------------------------------------|

|---------------------------------------------------------------------------|
|---------------------------------------------------------------------------|
|-14-13-12----------14-13-12-------------------------------16----16-18b20v--|
|----------14-13-12----------14-13-12__\\0//-9__\\4//16-18----18------------|
|---------------------------------------------------------------------------|
|---------------------------------------------------------------------------|

|-----------------------------------------------------|
|----------17-17-17-17----17-19-20r19p17-19-17-19b20--|
|-16-17-18-------18----18-----------------------------|
|-----------------------------------------------------|
|-----------------------------------------------------|
|-----------------------------------------------------|

|-19v--------------19b21v---19--------------------------|
|------b21_r19(p17)-------------20r19-17\\----0---------|
|-----------------------------------------------2-2-----|
|-------------------------------------------------------|
|-------------------------------------------2-----------|
|-------------------------------------------------------|
end of solo

|--------0--------|--------0-------------------|--------0---------------------|
|----3-------3----|----3-------3---3---3---3---|----3-------3---3---3---3---3-|
|------4---4---4--|-2/4--4---4---4---4---4-----|------4---4---4---4---4---4---|
|-----------------|----------------------------|------------------------------|
|-----------------|----------------------------|------------------------------|
|-0---------------|----------------------------|-0----------------------------|

|----0-------------------------------|--------------------------------------|
|--------3---3---2--2--2\1--1--1\0---|-2--2---------------------------------|
|---------4-----3-33-333\2--2--2\111-|-2----2-2-----------------------------|
|------------------------------------|-2-----2----4b5_r4-2-0----------------|
|------------------------------------|-0---------0-----------4b5r4b5r4---0--|
|------------------------------------|--------------------------------------|

|-----------------------------------------------------------------------|
|-----------------------------------------------------------------------|
|----------------------------------------------7------------------------|
|--4b5_-4-2-0--------------------2------(7)b9----9r7-5-7--5-6-----------|
|-0-----------3b-3b-------------------------------------------------2---|
|-------------------3b-3b-3b-3bp0--------------------------------0------|

|-------------------------------------------------------------------------|
|-------------------------------------------------------------------------|
|-------------------------------------------------------------------------|
|------0-----4---4-----4-6\----4-------2-4--4b5---2-4----2---0------------|
|-/12\-0--1--2---2-4/6-----2---2---3-4-----------------4-------2-0--------|
|------------------------------------------------------------------3b-0---|

|----------------0--------------------------|
|----------------3-----0--------------------|
|----------------1h2---0h1------------------|
|-7b-------------------2--------------------|
|-7b-------------------2--------------------|
|-5b----3b---0---------0--------0-tremdown--|
Comments