Queen - Liar Chords & Tabs

 

Liar Chords & Tabs

Queen Chords & Tabs

Version: 2 Type: Tab 0 ratings
1 star 2 stars 3 stars 4 stars 5 stars
comments

Liar Tab

Queen: Liar
Album: Queen I
|-----------------------------------------------------------------------|
|-----------------------------------------------------------------------|
|-2--------2------2-----2-----2-----2-6r4p2-----2---2----2-----2-----2--|
|-2---------------------2---2---------------4-2-2--------------------2--|
|-0----3b4---3b4----3b4-0-------3b4-------------0----3b4---3-4---3b4-0--|
|-----------------------------------------------------------------------|

|-2------------------------------------------------------------------3--------|
|---5-------------------------2-----3-----------------------------------------|
|--(0)--6r4p2-------------2---2-----------2-4-----2---2---2-0---2-------------|
|-------------4-2-2-2-2-2-----2---2---0h4---------2---2---2-0---2-------0-----|
|-----------------0-0-0-0-----0---------------3b4-0-------0-----0---------3b4-|
|-----------------------------------------------------------------------------|

|----------------------------------------------4---------7-------------7-----|
|-----7h8---7---7h8---5--------7h8---7---7h8---5-----8---7---8---10------8---|
|-----7h9---7---7h9---6--------7h9---7---7h9---6---------6------9----9-----9-|
|-----7-----7---7-----7--------7-----7---7-----7-----------------------------|
|-0-0------------------------------------------------------------------------|
|----------------------------------------------------------------------------|
[ Tab from: http://www.guitartabs.cc/tabs/q/queen/liar_tab_ver_2.html ]
|-9-----10-----9-----7--------|
|---8------8-----8-----8---10-|
|-----9------9-----9-----9----|
|-----------------------------|
|-----------------------------|
|-----------------------------|

|---------------------------------------------------------------------------|
|-------------------------------------------------------------9---7---9-7---|
|-9\----------------------------------------------------------9---7---9-7---|
|-9\-----9---7---9--------------------------------------------9---7---9-7---|
|-7\-7---7---5---7---5--------5-----7---5---7---5-------5-------------------|
|----0--------------------5-7---0-------------------5-7---0-----------------|

|---------------------------------------------------------------------------|
|-----9---7---9-7---------------------------------------------9---7---9-7---|
|-----9---7---9-7--7-------7----------------------------------9---7---9-7---|
|-----9---7---9-7------7-9------------------------------------9---7---9-7---|
|-------------------------------------------------------5-------------------|
|-0-------------------------------------------------5-7---0-----------------|

|-2-------320---0-|-2-------32--0---|---------3-----0-----------------------|
|-3---3------22--2|-3---3-----3--2--|-----3-----332-------------------------|
|---2---2------2--|------222---2--22|---2---2------2-2..--------------------|
|-----------------|---0-------------|-0-------------------------------------|
|-----------------|-----------------|---------------------------------------|
|-----------------|-----------------|---------------------------------------|

Comments