Queen - Keep Yourself Alive Chords & Tabs

 

Keep Yourself Alive Chords & Tabs

Queen Chords & Tabs

Version: 3 Type: Tab 0 ratings
1 star 2 stars 3 stars 4 stars 5 stars
comments

Keep Yourself Alive Tab

   
Gtr I, II (E A D G B E) - 'Brian May Overdrive Electric'

Q=140
 3/4                       4/4
  Gtr I
        PM---------------------------------------------
    Q   E S S S E S E S S   E S S E S S S S S S E S S
|-------------------------|---------------------------|
|-------------------------|---------------------------|
|-------------------------|---------------------------|
|-------------------------|---------------------------|
|-------------------------|---------------------------|
|-(10)s=1-1-1-1-1-1-1-1-1-|-1-1-1-1-1-1-1-1-1-1-1-1-1-|


 -------------------------|
  S E S E S S S S S S E S S
|---------------------------|
|---------------------------|
|---------------------------|
|---------------------------|
|---------------------------|
|-1-1-1-1-1-1-1-1-1-1-1-1-1-|


  S S S S E S S S S S S S S S S   S S S S E S S E   S S E S S
|-------------------------------|-----------------------------|
|-------------------------------|-----------------------------|
|-------------------------------|-----------------------------|
|-------------------------------|---------7-------------------|
|-------------------------------|---------0-------------------|
|-1-1-1-1-1-1-1-1-1-1-1-1s5-5-5-|-5-5-5-5-5-5-5-5---5-5-5-5-5-|
|
| Gtr II
|                                               PM-------------
| W                               H             S S S S E E
|-------------------------------|-----------------------------|
|-------------------------------|-----------------------------|
|-------------------------------|-----------------------------|
|-------------------------------|-----------------------------|
|-------------------------------|---------------0-0-0-0-0-0---|
|-------------------------------|-----------------------------|


  E   S S E S S S S S S E   S S
|--------------------------------|
|--------------------------------|
|--------------------------------|
|--------------------------------|
|--------------------------------|
|-5---5-5-5-5-5-5-5-5-5-5---5-5--|
|
|-----------------------------|
| S S S S E S S S S S S S S S S
|--------------------------------|
|--------------------------------|
|--------------------------------|
|--------------------------------|
|-0-0-0-0-0-0-0-0-0-0-0-0-0-0-0--|
|--------------------------------|


        E  S S  E  S S       E    S  S  E S     S
|-------------------------------------------------|
|-------------------------------------------------|
|-------------------------------------------------|
|-------------------------------------------------|
|-------------------------------------------------|
|-------5--5-5--5--5-5-------5----5--5--5-5-----5-|
|
|          ~~~~~~~~
| A    +E  E   +Q      A    +S  S S  S  E E
|-------------------------------------------------|
|-7b8==(7)-7---(7)-----7b8==(7)r7p5-----7-5b5.5---|
|-7b9==(7)-7---(7)-----7b8==(7)r7p5-----7-5b5.5---|
|-----------------------------------(7)-----------|
|-------------------------------------------------|
|-------------------------------------------------|


  E   S S E E  S  S S S E S S         E  S S  E  S S       S  S S S S S S     S
|----------------------------------|-----------------------------------------|
|----------------------------------|-----------------------------------------|
|----------------------------------|-----------------------------------------|
|--------------7--7-7-7-7----------|-----------------------------------------|
|--------------0--0-0-0-0----------|-----------------------------------------|
|-5---5-5-5-5--5--5-5-5-5-5-5------|--5--5-5--5--5-5-------5--5-5-5-5-5-5--5-|
|
|           ~~~~~~                       ~
| S S E   E E +H              A      +E  E   +Q      A    +S  S S S E   E
|----------------------------------|----------------------------------------|
|-----------------------------7b8==|=(7)-7---(7)-----7b8==(7)r7p5---7-5b5.5-|
|-----------------------------7b9==|=(7)-7---(7)-----7b8==(7)r7p5---7-5b5.5-|
|-7p5-----5-7-(7)------------------|------------------------------7---------|
|-----7----------------------------|----------------------------------------|
|----------------------------------|----------------------------------------|

[ Tab from: http://www.guitartabs.cc/tabs/q/queen/keep_yourself_alive_tab_ver_3.html ]
  E   S S E   S S S S S S E S S
|----------------------------------|
|----------------------------------|
|----------------------------------|
|-----------------7-7-7-7----------|
|-----------------0-0-0-0----------|
|-5---5-5-5---5-5-5-5-5-5-5-5-5----|
|
|             ~~~~~~
| S S E   S S E   H              A
|----------------------------------|
|----------------------------------|
|-------------------------------^x-|
|-7p5-----5---7---7-------------^x-|
|-----7----------------------------|
|----------------------------------|


        E  S S  E  S S       S  S S S S S S S   S S S S E S S  S  S S S E. S
|---------------------------------------------|------------------------------|
|---------------------------------------------|------------------------------|
|---------------------------------------------|------------------------------|
|---------------------------------------------|----------------7--7-7-7-7----|
|---------------------------------------------|----------------0--0-0-0-0----|
|-------5--5-5--5--5-5-------5--5-5-5-5-5-5-5-|-5-5-5-5-5-5-5--5--5-5-5-5--5-|
|
|                                                         ~~~~~~~~
| A    +E  E   +Q      A    +S  S S S E   E     S S E   E E   +H
|---------------------------------------------|-----------------------------|
|-7b8==(7)-7---(7)-----7b8==(7)r7---------5---|-----------------------------|
|-7b9==(7)-7---(7)-----7b8==(7)r7p5---7---5---|-----------------------------|
|-----------------------------------7---------|-7p5-----5h7---(7)-----------|
|---------------------------------------------|-----7-----------------------|
|---------------------------------------------|-----------------------------|


        S  S S S  E  S S       S  S S S E S S
|---------------------------------------------|
|---------------------------------------------|
|---------------------------------------------|
|---------------------------------------------|
|---------------------------------------------|
|-------5--5-5-5--5--5-5-------5--5-5-5-5-5-5-|
|
| A    +E    E   +Q      A    +S  S S S E E
|---------------------------------------------|
|-7b8==(7)---7---(7)-----7b8==(7)r7p5---7-5---|
|-7b9==(7)---7---(7)-----7b8==(7)r7p5---7-5---|
|-------------------------------------7-------|
|---------------------------------------------|
|---------------------------------------------|


  S S S S S S E  S  S S S E E         S  S S S  E  S S       S  S S S E S S
|-----------------------------|---------------------------------------------|
|-----------------------------|---------------------------------------------|
|-----------------------------|---------------------------------------------|
|----------------7--7-7-7-7-7-|-----------------7---------------------7-----|
|----------------0--0-0-0-0-0-|-----------------0---------------------0-----|
|-5-5-5-5-5-5-5--5--5-5-5-5-5-|-------5--5-5-5--5--5-5-------5--5-5-5-5-5-5-|
|
|             ~~~~~~
| S S E   E   E +H              A    +E    E   +Q      A    +S  S S S E E
|-----------------------------|---------------------------------------------|
|-----------------------------|-7b8==(7)---7---(7)-----7b8==(7)r7p5---7-5---|
|-----------------------------|-7b9==(7)---7---(7)-----7b8==(7)r7p5---7-5---|
|-7p5-----5h==7-(7)-----------|-------------------------------------7-------|
|-----7-----------------------|---------------------------------------------|
|-----------------------------|---------------------------------------------|


  S S S S E   S S  S  S S S E     S S
|-------------------------------------|
|-------------------------------------|
|-------------------------------------|
|---------7-----------------7---------|
|---------0-----------------0---------|
|-5-5-5-5-5---5-5--5--5-5-5-5-----5-5-|
|
|             ~~~~~~~~
| S S E   S S E   +Q        Q
|-------------------------------------|
|---------------------------5b5.5-----|
|---------------------------5b5.5-----|
|-7p5-----5h==7---(7)-----------------|
|-----7-------------------------------|
|-------------------------------------|


       S  S S S  E  S S       S  S S S E S S   E   E E E +H
|--------------------------------------------|------------------*|
|--------------------------------------------|---------7-(7)----*|
|--------------------------------------------|-------5-7-(7)----*|
|----------------7---------------------7-----|-7---7-5-7-(7)----*|
|----------------0---------------------0-----|-0---0-3-5-(5)----*|
|------5--5-5-5--5--5-5-------5--5-5-5-5-5-5-|-5---5------------*|
|
| A   +E    E   +Q      A    +S  S S S E E     S S E E E +H
|--------------------------------------------|------------------*|
|-7b8-(7)---7---(7)-----7b8==(7)r7p5---7-5---|------------------*|
|-7b9-(7)---7---(7)-----7b8==(7)r7p5---7-5---|-------5-7-(7)----*|
|------------------------------------7-------|-7p5---5-7-(7)----*|
|--------------------------------------------|-----7-3-5-(5)----*|
|--------------------------------------------|------------------*|
Comments