Queen - Its Late Chords & Tabs

 

Its Late Chords & Tabs

Queen Chords & Tabs

Version: 1 Type: Tab 0 ratings
1 star 2 stars 3 stars 4 stars 5 stars
comments

Its Late Tab

   
Queen: It's Late
Album: News Of The World
------>0-----<0---<0--------------------------------------------------------------------
-<2---<3----->3--->2-----------------------3-----3p2-----------------2h3--2-------------
->2--->2-----<2---<2---2----------------2-------------2--------2-----2----2--2----------
-<2---<4----->4--->4--------4--2-----4----------------------2-----2-------2-----2-------
->0--->0-----<0---<0--------------5----------------------0-------------------------0----
----------------------------------------------------------------------------------------

-------------------------------------------------------------------------------------------------------
-----------------2---------------------3--3p2-2-----------------2---------------------3--3p2-2-2-------
---------2-------2-------------2-------2--2-----4p2-----2-------2-------------2-------2--2---2-4p2-2---
---------2-------2---------0---2-------4------------4p2-2-------2---------0---2-------4-(4p2)------2h4-
-----0---0----x--0---------0---0----x--0----------------0----x--0---------0(2)0----x--0----------------
-0h2---2---------------0h2---2----------------------------------------0h2---2--------------------------

----------------------------------------------------------------------------------------------
---------2---------------------3--3p2-2-2--------------2---------------------3--3-2-2---------
-2-------2-------------2-------2--2-----4p2-2---2------2-------------2-------2--2-2-2-4p2-----
-2-------2---------0---2-------4------------4p2-2------2---------0---2-------0----2-------2h4-
-0----x--0---------0---0----x--0----------------0----x-0---------0---0----x-------------------
---------------0h2---2---------------------------------------0h2---2--------------------------

------------------------------------------------------------------------------------
---------2---------------------3--3-------------2-------2---------7-------6---------
-2-------2-------------2-------2--2-------------2-------2---------6-------6---------
-2-------2---------0---2-------0--0-------------2-------2---------6-------6---------
-0----x--0---------0---0----x-------4-2-0-------0----x--0----x----4----x--4----x----
---------------0h2---2--------------------2-0-2-------------------------------------

-2-------------2-----2------2----------------------------------------------0------------------------------
-2-------------2-----3------3--3-2-2-----------------2---------------------3-------2----2----2----2----2--
-2----2--------2-----2------2--2-2---4p2-----2-------2-------------2-------2-------2----2----2----2----2--
-4-------4--------0--------------2-------2h4-2-------2---------0---2-------2-------2----2----2----2----2--
-4-------------------------------------------0----x--0---------0---0----x----------0----0----0----0----0--
------------0----------------------------------------------0h2---2----------------------------------------

--------|---------------|-----|-----------|---------------------------------------------------
-10-9---|-2--2------2---|-9--\|-2-------2-|---------5----3---2------7--5--5--9--2--5--5--9--2-
-9--9---|-2--2------2---|-9--\|-2-------2-|-9--7----6----2---2---9--7--6--6--9--2--6--7--9--2-
-9--9---|-2--2------2---|-9--\|-2-------2-|-9--7----7..\-2..-2---9--7--6--7--9--2--7--7--9--2-
-7--7...|-0--0--3h4--...|-7...|-0...3h4---|-7--5...----------0..-7--5..4..7..7..0..-..-..7..0-
--------|---------------|-0---|-----------|-------------------------------5-------------------

----------------------------------------------------------------------------------------------
---------2---------------------3--3p2-2----------------2---------------------3--3-2-2---------
-2-------2-------------2-------2--2-----4p2-----2------2-------------2-------2--2-2-2-4p2-----
-2-------2---------0---2-------4------------4p2-2------2---------0---2-------4------------2p4-
-0----x--0---------0---0----x--0----------------0----x-0---0-----0---0----x-------------------
---------------0h2---2---------------------------------------0h2---2--------------------------
	
----------------------------------------------------------------------------------------------
---------2---------------------3--3p2-2----------------2---------------------3--3-2-2---------
-2-------2-------------2-------2--2---2-4p2-----2------2-------------2-------2--2-2-2-4p2-----
-2-------2---------0---2-------4------------4p2-2------2---------0---2-------4----2-------4p2-
-0----x--0---------0---0----x--0----------------0----x-0---------0---0----x-------------------
---------------0h2---2---------------------------------------0h2---2--------------------------

----------------------------------------------------------------------------------------------
---------2---------------------3--3--------------------2---------------------3--3-2-2---------
-2-------2-------------2-------2--2-------------2------2-------------2-------2--2-2-2-4p2-----
-2-------2---------0---2-------0--0-------------2------2---------0---2-------4----4-------4p2-
-0----x--0---------0---0------------4---2-0-----0------0---------0---0----x-------------------
---------------0h2---2----------------------3b---------------0h2---2--------------------------

A C#sus4 c# 

-2---------------2------2----------------------------------------------0---------------------------------0-----
-2---------2-----3------3--3p2-2-----------------2---------------------3------2-----2--------------------3-----
-2---------2-----2------2--2-----4p2-----2-------2-------------2-------2------2-----2--------------2-----2-----
-4---------2--4----------------------4p2-2-------2---------0---2-------2------2-----2----------0---2-----2-----
-4---------------------------------------0----x--0---------0---0----x---------0-----0----------0---0-----------
--------0----------------------------------------------0h2---2-----------------------------0h2---2-------------
[ Tab from: http://www.guitartabs.cc/tabs/q/queen/its_late_tab.html ]
AAAAA
...
3'9"
---------------------------------------------------------------------------------------------
------------------2----------------------2------------------------2-----------------------2--
------------------2----------------------2------------------------2-----------------------2--
------------------2----------------------2------------------------2------------------20---2--
-*-----*-----*----0----------------------0------------------------0--------------------4240--
-0--0--0--0--0--00------0--0--0--0--000---------0--0--0--0--0--0---------0--0--0--0----------


------------------------------------------------
-------------------2-----------------------2----
-------------------2-----------------------2----
-------------------2-----------------------2----
-------------------0-----------------------0----
-0--0--0--0--0--0--------0--0--0--0--0--0----...


3'29
------------------------------------------------------------------------------------------------------
------------------------------------------------------------------------------------------------------
-------------------------------------------4-------------------------------------------4--------------
-------------------22----------------------4---------------2----------4----------------4--------------
-------------------------------------------2-----------2h4-----4--2h4-4----------------2--------------
-2--2--2--2--2--2--------2--2--2--2--2--220------2--2-----------------2--2--2--2--2****---------------


---------------------------------------------------------------------------------------------------
---------------------------------------------------------------------------------------------------
-------------------------------------------4------------------------22-----------------------------
-----------2----------4--------------------4------------------------22--------------4--5--5--5--5--
-------2h4-----4--2h4-4--------------------2-------------------------------------4--4--5--5--5--5--
-2--2--------------------2--2--2--2--2--220------2--2--2--2--2--2--2-------2--2--2--2--3--3--3--3--

--------------------------------|----------------------------------|-----
--------------------------------|----------------------------------|-----
--------------------------------|----------------------------------|-0//-
10--10--10--10--10--10------10--|-10--10--10--10--10--10--10--10---|-//0-
10--10--10--10--10--10--12--10--|-10--10--10--10--10--10--121012-8-|-----
-8---8---8---8---8---8---8---8--|--8---8---8---8---8---8---8---8---|...--

---------------------------------|----|
---------------------------------|----|
---------------------------------|-0/-|
---------------------------------|-/0-|
101013--12--1110--1012---8-8-8-8-|----|
-8-8-8-8-8-8-8-8-8-8-8-8-8-8-8-8-| 7X |

CG  DA  EB  E Esus4
...

5'36"
A Amaj7 D B E c# F#m A D A

E D A E D A E D A E D A


solos

3'30"
-----------2-----------------------------------------------------------------------------
-2-5b__7-----5p2------------------------------------__---------2h5-5b__7__t12v_p7r__5-x--
-----------------2x2b------4p2---2h4b__6t12v--p6r__4brp2---2h4---------------------------
-----------------------4-------4---------------------------------------------------------
-----------------------------------------------------------------------------------------
-----------------------------------------------------------------------------------------

------------------------------------------------------------------------------------------------------------
-(t12p)7h10t12p10b12t12p12___r10--------------------7h10t12p10b12t12p12v--(t12p)12r_10p8t12p10-7------------
---------------------------------6h9t12p9b11_t12---------------------------------------------(t12p)9b__11v--
------------------------------------------------------------------------------------------------------------
------------------------------------------------------------------------------------------------------------
------------------------------------------------------------------------------------------------------------

----------------------------------------------------------------------------------------
------------------------------------------------------------___-------------------------
-r9p8p6--t12p4t12b_14p6r_4p2--t12p4-3-2-------------(t12p)2-4b6t12p6r5t12p5r4t12v___\tr\
-------7--------------------------------4p2---2-----------------------------------------
--------------------------------------------4---4\2-------------------------------------
----------------------------------------------------------------------------------------

3'56
----------------------------------------------------------------------------------------------------
---------5----------------------------------------------------------------------------6---5---6---5-
-7b___8------x-b8-b8-b8-b8-b8b-b8-b8-b8-b8-b8-b8-b8-b8-b8-b8-b8---b8r7p5--7p5---5-----5---5---5---5-
-----------8------------------------------------------------------------------7-----5-7---5---7---5-
----------------------------------------------------------------------------------------------------
----------------------------------------------------------------------------------------------------


-------------___-___-----------------------------------------------
-8b10----10_r8p5-8p5-------___---5-6-5---------------5---5-6---5---
---------------------8-7-5-7p5---5-5-5---------------5---5-5---5---
-------------------------------7-5---5-------___-5---5---5-7---5---
---------------------------------------7-3-3-5/7---7---------------
-------------------------------------------------------------------
           _____
--------5--8p5h8-5--------------------------------------___-------------------------------6-6-6-6-6-6-6-6---
-8b10--------------8-b10---8---4r3---3b__5__t12__p5r3p1-3p1---1-3b5t8---6b8t15___p8r6p5---8-8-8-8-8-8-8-8...
-----------------------------------2----------------------------------------------------5-------------------
------------------------------------------------------------2-----------------------------------------------
------------------------------------------------------------------------------------------------------------
------------------------------------------------------------------------------------------------------------

Comments