Queen - In Only Seven Days Chords & Tabs

 

In Only Seven Days Chords & Tabs

Queen Chords & Tabs

Version: 1 Type: Chords 0 ratings
1 star 2 stars 3 stars 4 stars 5 stars
comments

In Only Seven Days Chords

   
#----------------------------------PLEASE NOTE---------------------------------#
#This file is the author's own work and represents their interpretation of the #
#song. You may only use this file for private study, scholarship, or research. #
#------------------------------------------------------------------------------#
#

Queen: In only seven days
chords

Note: this tab is not a real transcription. At several places it is close
to the original, but it's 40% is bluff, but I hope you'll like it.

piano intro
e-\0-----2---5---|-0/|
b-/2-2---3-------|-/-|
g-\2---2---2---2-|/0-|

acc.gtr:
 
|-0--2----------0---2---0--0---2--|
|-2--3----------2---3------2---3--|
|-2--2----------2---2------2---2--|
|-0--0----0-----0---0-------------|
|-------0---0--------------2---2--|
|---------------------------------|


|-2--0-------------------|
|-3--0---3---/2---0---0--|
|--------4---/2---1---1--|
|-------------0-------0--|
|------------------------|
|-0----------------------|


|-2----3---/5--2--0-0--2---0-2---0-----|
|-3----2---/5--3-------0-----0-----2---|
|-4----2---/5--4-------0-----0-------2-|
|--------------5-----------------------|
|-2----0---------------0-----0---------|
|--------------------------------------|

[ Tab from: http://www.guitartabs.cc/tabs/q/queen/in_only_seven_days_crd.html ]
|--------------------2---|
|---------3----------3---|
|---------5----------2---|
|-----0---5----3--2--0---|
|-0h2---0-3--------------|
|------------------------|



|--------------2--0-----------0----2------|
|--------------3--3-----------3--------3--|
|--------------4--4-----------3--------2--|
|--------------------------------------0--|
|-0--2--0------------0-2-0----------------|
|--------------0--------------3-----------|

x1x323                 e-/5-    x2x232  xx2130
I never thought______________________________
In  only seven days
|---------------2---|
|---2--3--5-/7--3---|
|---2--2--4-/6--2---|
|-2----4--5-/7--0---|
|---0---------------|
|-------------------|
                           x7x797
It would take__________________________


|-0-----2----0-----2----0-----2-------|
|---2---3------2---3------1---3-----3-|
|-----2-2--------2-2--------0-0-----2-|
|-0-----0----0-----0----------------4-|
|-----------------------3-----3-----2-|
|-------------------------------------|

 
|-/7------7--/2--2--|
|-\7------7--/3--3--|
|-/----7--7---0--2--|
|-\6---6--5------0--|
|------7--5---------|
|-------------------|

another variant to 'wednesday':
|---52--2-2-----2-0-30--0-0-----0---0----|
|-----3--54-45----0---0--32-23------3-3--|
|--2---2---4-------0---0---2--------2----|
|-0---------------------------------0----|
|---------2---------------0--------------|
|-----------------0----------------------|

arranged by Pinter Denes 
dpinter@eik.bme.hu
Comments