Queen - I'm In Love With My Car Chords & Tabs

 

I'm In Love With My Car Chords & Tabs

Queen Chords & Tabs

Version: 1 Type: Tab 0 ratings
1 star 2 stars 3 stars 4 stars 5 stars
comments

I'm In Love With My Car Tab

#----------------------------------PLEASE NOTE---------------------------------#
#This file is the author's own work and represents their interpretation of the #
#song. You may only use this file for private study, scholarship, or research. #
#------------------------------------------------------------------------------#
#

Queen: I'm in love with my car
Roger Taylor/1975

transcribed by Pinter Denes

solos:
------------------------------------------------------------------------------
------------------------------------------2-3-5b7v----r5p3-5p2-3p2------------
-------0h2h4p2~4-p0-----------------0h2h4---------------------------4p2-4p0h2-
-0h2h4--------------2-----0-----2h4-------------------------------------------
-----------------------4------------------------------------------------------
------------------------------------------------------------------------------
37" 
|-------------------------------------------|
|------------------------____________-------|
|---------------14b16___r15b16r14p1214b16---|
|------------14-----------------------------|
|---------14--------------------------------|
|-*-12-15-----------------------------------|

|----------------------------------------|-----------------------------|
|-15b17----15--13--12--------------------|-b20__18-b20--b19-b20__r-17--|
|----------------------b15_r14p12--------|-----------------------------|
|---------------------------------14-12--|-----------------------------|
|----------------------------------------|-----------------------------|
|----------------------------------------|-----------------------------|

                           1'21"
|-------------------------|-----------------------------------|
|-------------------------|-----------------------------------|
|-15__r14p12-14b15--------|-4p2----------------------7rrr4----|
|--------------------14---|--------3p2p0-----4/5--------------|
|-------------------------|--------------2--------------------|
|-------------------------|-----------------------------------|

|------------------------------------------|
|------------------------------------------|
|-7b9__-7--5--4--5--4~5--------------------|
|------------------------7-5~7---5\4-------|
|-------------------------------------7p5--|
|------------------------------------------|
[ Tab from: http://www.guitartabs.cc/tabs/q/queen/im_in_love_with_my_car_tab.html ]
1'43"
|----------------------------------------------------|
|----------------------------------------------------|
|-----------------------2h4h5---4h5p4p2p0h2p0--------|
|-2h4h5p4p2p0---0h2h4h5-----------------------4p2p0--|
|----------------------------------------------------|
|----------------------------------------------------|

|---------------------------------------|---------------------------------|
|---------------------------------------|-15--17v-----15--17--b19_r17-----|
|----------------------------12h14b16v--|-----------------------------14--|
|----------------------12h14------------|---------------------------------|
|----------10--12--14-------------------|---------------------------------|
|-8//1012-------------------------------|---------------------------------|

|--------------------------------------------------17-----------|
|-(17)b20---b19--17--15--17--17b19_r17p15--17--19------19b21v---|
|---------------------------------------------------------------|
|---------------------------------------------------------------|
|---------------------------------------------------------------|
|---------------------------------------------------------------|

2'34
|------------|-----------|--------------------|---------------------|
|------------|-----------|--------------------|---------------------|
|-0h2h4p2----|-----------|-p2h4p2p0-----------|-4h5p4p2p0h2h4p2p0---|
|---------0--|-5p4p2p0---|------------3---0---|---------------------|
|------------|-----------|--------------------|---------------------|
|------------|-----------|--------------------|---------------------|

|-------------------|
|-5p3-5p3---3-------|
|---------5---5b7---|
|-------------------|
|-------------------|
|-------------------|

-------------------------------------------------------------------------------
---------------------------------------------------------------------3---3-5b6v
5----2---5p2-5p2-5p2-----------------------------------------------5---5-------
---------------------5p3-5p3---------------------------------6r5b6-------------
-----------------------------5---5p3-5p3-------------3-5-3-5-------------------
-----------------------------------------5p0-5-3-1-----------------------------

two gtrs arr for one
|-3-3----3-3--0-----0-2-2--|
|-3-3----2-3--3--3--3-3-3--|
|-0-0----2-2--2--2--2-2-2--|
|-0-0----2-2--------0-0----|
|-2-2----------------------|
|--------------------------|
Comments