Queen - If You Cant Beat Them Chords & Tabs

 

If You Cant Beat Them Chords & Tabs

Queen Chords & Tabs

Version: 1 Type: Tab 0 ratings
1 star 2 stars 3 stars 4 stars 5 stars
comments

If You Cant Beat Them Tab

Queen: If You Can't Beat Them

|-----------------------------|----------------------------|
|-----------------------------|----------------------------|
|-----------------------------|----------------------------|
|------------------------6\0--|-------------------------6--|
|--------------2---2-4-5------|---------------2---2-4-5----|
|-2---4-5-6-------------------|-2---2-4-5-6----------------|

|-------------------------------|---------------------|
|-------------------------------|---------------------|
|-------------------------------|---------------------|
|--------------------------6\0--|-----------------9---|
|----------------2---2-4-5------|-------------4-5-7---|
|-2---2-4-5-6-------------------|-2---4-5-6-7---------|

|-----------------------------||-------------------------------------|
|-8b10--b10--10r8-7-----------||-8b10--b10--10r8p7-------------------|
|-------------------9---------||-------------------9-6/7-8-9---------|
|---------------------10r9-7--||-------------------9---------10r9-7--|
|-----------------------------||-------------------------------------|
|-----------------------------||-------------------------------------|
[ Tab from: http://www.guitartabs.cc/tabs/q/queen/if_you_cant_beat_them_tab.html ]
solo
Right guitar
|---------------------------------------------------|
|---------------------------------------------------|
|---------------------------------------------------|
|------------------------------7-9-7h9p7------------|
|-5----4---5\2---2_/5-7-9--10--------------5\2__/5--|
|---------------------------------------------------|
left guitar
|->>>>---------------------------------------------------------------------------------|
|->>>>------------------------------10b12---7h10p710b12---10--8-7----------------------|
|->>>>---------------------7h9p7----------------------------------9--7-----------------|
|-----4---4h5p4h5p4--5--7-----------------------------------------------9-7-5---/12v---|
|--------------------------------------------------------------------------------------|
|--------------------------------------------------------------------------------------|
right guitar
|---------------------------------------------------------------|
|-xxx>>>----------------------------------------10------------12|
|-xxx>>>--------------------------7--\4----9/11------11\/-1214--|
|-xxx>>>-7--5------------7_\--7/9-------------------------------|
|--------------/5----7/9----------------------------------------|
|---------------------------------------------------------------|

|--------------------------12------------------------------|
|-15---1512--15---12--15-----12--15---15-12--17b19--15v----|
|----------------------------------------------------------|
|----------------------------------------------------------|
|--------------------------------------------------------xx|
left guitar
|------------------20-20-20-20------------------------------|
|-(16--)---20b22------------------22_r20p1820---18---18b----|
|-(--17)------------------------------------------------19--|
|-----------------------------------------------------------|
|-----------------------------------------------------------|
|-----------------------------------------------------------|

|-20b22--b22-2017----------------------------12---------------------------|
|----------------2017b----------------15b17-----15p12-15p12---------------|
|----------------------19--17-------------------------------14p12-14b16---|
|----------------------------1917-----------------------------------------|
|-------------------------------------------------------------------------|
|-------------------------------------------------------------------------|

|------------------------------------------------|
|-14_b15r14p1214--14b15--14_b15r14p12(0)15_b17---|
|------------------------------------------------|
|------------------------------------------------|
|------------------------------------------------|
|------------------------------------------------|

Comments