Queen - I Want To Break Free Chords & Tabs

 

I Want To Break Free Chords & Tabs

Queen Chords & Tabs

Version: 4 Type: Tab 0 ratings
1 star 2 stars 3 stars 4 stars 5 stars
comments

I Want To Break Free Tab

   
-----------------------------------------------------------------
I WANT TO BREAK FREE (Guitar Solo) - Queen
-----------------------------------------------------------------
Tabbed by: sanchez87
Email: sanchez87@web.de

I've written this tab for acoustic guitar, based on the I Want To 
Break Free-tab by Mobscene96. Because some notes in that tab are on 
too high frets for an acoustic guitar I've transcribed it,
I think it's a good alternative for acoustic-players and it 
sounds well. Enjoy playing it and don't forget rating this tab!

Tuning: EADGBe

e|------------------|--------------------------------------|
B|--0--5--7--9--9b--|--0--5--7--9--9b--5--0--9b--5--0------|
G|------------------|----------------------------------2---|
D|------------------|--------------------------------------|
A|------------------|--------------------------------------|
E|------------------|--------------------------------------|
[ Tab from: http://www.guitartabs.cc/tabs/q/queen/i_want_to_break_free_tab_ver_4.html ]
e|--8-------------------------|
B|-----10--5--3--2--3--2------|
G|------------------------2---|
D|----------------------------|
A|----------------------------|
E|----------------------------|

e|--8--(8)--(8)-------------------------|
B|---------------10--5--9--5--0---------|
G|-------------------------------2--1---|
D|--------------------------------------|
A|--------------------------------------|
E|--------------------------------------|

e|--3b(3)---|
B|----------|
G|----------| let ring for about 4 seconds
D|----------|
A|----------|
E|----------|

E|----------------------------------------| 
B|--9b(9)--------9--------9---------------| 
G|---------9--------9--------9------------| 
D|------------9--------9--------9--6--6---| 
A|----------------------------------------| 
E|----------------------------------------| 

e|------------------------------------------------|
B|------------------------------------------------|
G|------------------------------------------------|
D|--7--6----------------5b(5)--2--0---------------|
A|--------7--------------------------2--0---------|
E|-----------7--5--4-----------------------3--0---|



| / slide up
| \ slide down
| h hammer-on
| p pull-off
| ~ vibrato
| + harmonic
| x Mute note
| b bend
Comments