Queen - I Want To Break Free Chords & Tabs

 

I Want To Break Free Chords & Tabs

Queen Chords & Tabs

Version: 2 Type: Tab 0 ratings
1 star 2 stars 3 stars 4 stars 5 stars
comments

I Want To Break Free Tab

Queen
I want to break free

Synth arranged for guitar
|-----------------------------|--------------------------------------------------|
|---------7---9---9b_10r_9\5--|---------7---9---9b10r9--------9b10r9-------------|
|-----9-----------------------|-----9-------------------9------------9-----------|
|-9---------------------------|-9-------------------------9------------9p7-6_\2--|
|-----------------------------|--------------------------------------------------|
|-----------------------------|--------------------------------------------------|

|------------------------------------------|
|-/14_b_15r14------------------------------|
|--------------14--------------------------|
|-----------------14-12-11b12r11-----------|
|----------------------------------12------|
|--------------------------------------12--|
[ Tab from: http://www.guitartabs.cc/tabs/q/queen/i_want_to_break_free_tab_ver_2.html ]
|--------------------------------------------------------|
|-2/14b_15_r14b15r14---------9__b10rbr9------------------|
|--------------------14-----------------9----------------|
|-----------------------14-----------------9--7--6_br\3--|
|--------------------------------------------------------|
|--------------------------------------------------------|

|----------------------____--------___-----------------------------------------------------------|
|-7b_9r_7_\tr\4----/9__brbr-----9__brb----9brb---------------------------------------------------|
|--------------------------9----------9-------9--------------------------------------------------|
|----------------------------9----------9-------9-6-6-7__brbrp6---------5b7__r5p2p0--------------|
|---------------------------------------------------------------7-------------------2p0----------|
|-----------------------------------------------------------------7-5-4-----------------3p0\\tr\\|
Comments