Queen - I Want It All Chords & Tabs

 

I Want It All Chords & Tabs

Queen Chords & Tabs

Version: 2 Type: Tab 0 ratings
1 star 2 stars 3 stars 4 stars 5 stars
comments

I Want It All Tab

I want it all
Queen
I Want It All

|----------7----7---------------10p7h10p7--------------|
|-10b12v-----10---10-7-10p7h10p7---------10p7-10b12v---|
|------------------------------------------------------|
|------------------------------------------------------|
|------------------------------------------------------|
|------------------------------------------------------|

|---------------------------|
|-10-7----------------------|
|------9b10__r9--7-9-7h9p7--|
|---------------------------|
|---------------------------|
|---------------------------|

-17b19_r--17---14-----------------------17-----------------------------------
------------------17b19---17v-----17b19-----19r17p15-17b19__r17p15-----------
-------------------------------------------------------------------16---14vv-
-----------------------------------------------------------------------------
-----------------------------------------------------------------------------
-----------------------------------------------------------------------------
...

|--------------------7-7-----------------------------------------|
|-9b_10-------7-10p7-----10b12--10b12___r10p7--------------------|
|-9b_11---b11---------------------------------10r9p7-6-7---9-----|
|------------------------------------------------------------7---|
|----------------------------------------------------------------|
|----------------------------------------------------------------|

|----------____-7----------------------------|
|-10b__12--7h10---7--------------------------|
|-------------------10-9-7------------7-___--|
|--------------------------9-7-----9----9p7--|
|--------------------------------------------|
|--------------------------------------------|

|--------------------10b12---10---7----7------7--------------------|
|-----------------------------------10---7h10---10b12__rbrp8-------|
|-----7------------------------------------------------------10p9p7\
|-9-------9p7-9----7-----------------------------------------------|
|------------------------------------------------------------------|
|------------------------------------------------------------------|

|------------17p14--17p14--------------|
|--------15-------14-----1417b19--17v--|
/14--16----16--------------------------|
|--------------------------------------|
|--------------------------------------|
|--------------------------------------|

|----------------------|
|-17b19____r17p15------|
|----------------16vv--|
|----------------------|
|----------------------|
|----------------------|

..
|-----------------------------------------------------------|
|...15p14-------15p14-------17b19vv-------------------------|
|---------16p14-------16p14---------------------------------|
|--------------------------------------16__r14p12-----------|
|-------------------------------------------------14---14---|
|-----------------------------------------------------------|
[ Tab from: http://www.guitartabs.cc/tabs/q/queen/i_want_it_all_tab_ver_2.html ]
|-----------------------------------------------------------------|
|-----------------------------------------------------------------|
|----------------------------------------________-----------------|
|----------------------------------12-14b16r14p12-14p12-----------|
|----------------------12----12h14----------------------14p12-14--|
|-14-12p10-12p10-12/14----14--------------------------------------|

|---------------------------------------------------------------------|
|-15b17---15b17---r15v----7-6-5-------3p2-----3p2-----3p2-----3p2-----|
|-------------------------------7-4-2-----4p2-----4p2-----4p2-----4p2-|
|---------------------------------------------------------------------|
|---------------------------------------------------------------------|
|---------------------------------------------------------------------|

|---------------------------------------------------------|
|-5b7vvvr5--3-5p3-2-3p2-----------------------------------|
|-----------------------4-x-4p2---2-----------------------|
|-------------------------------4---4p2p0-2p0-2p0---------|
|-------------------------------------------------2p0-2---|
|---------------------------------------------------------|

|------------------------------------------------------------|
|-15____-15vv17----17b19__r17p15--------------17b19--17b19---|
|--------------------------------16--17rbr16-----------------|
|------------------------------------------------------------|
|------------------------------------------------------------|
|------------------------------------------------------------|

|-----------------------------|
|-17b19--17b19__r17p15--------|
|----------------------16_v---|
|-----------------------------|
|-----------------------------|
|-----------------------------|

|----------------10---10...-10/12---12---12------|
|-13b15-13-13b15---b15-----------b17--b17--b17---|
|------------------------------------------------|
|------------------------------------------------|
|------------------------------------------------|
|------------------------------------------------|

|-------------------------------------------------|
|-19r17p15-14-15p14-------------------------------|
|-------------------16p14-16p14----14-------------|
|-------------------------------16----16\14-12----|
|----------------------------------------------14-|
|-------------------------------------------------|

...
|---------------------8-7--5---5---------------------------------|
|-------5h8p5-8b10-----------8-----------------------------------|
|-7b9----------------------------7b9---7---5-7p5-4---------------|
|--------------------------------------------------7-5---3---5---|
|----------------------------------------------------------------|
|----------------------------------------------------------------|

|-17b19------17---14------------------------------------------|
|----------------------18r_17_p15--17--15--14--15p14h15p14----|
|----------------------------------------------------------16-|
|-------------------------------------------------------------|
|-------------------------------------------------------------|
|-------------------------------------------------------------|

|-----------------------------------------------|
|-14--------------------------------------------|
|----16-14h16p14----14--------------------------|
|----------------16----16-15-14-13--14--12___\--|
|---------------------------------14--14--------|
|-----------------------------------------------|
Comments