Queen - Headlong Chords & Tabs

 

Headlong Chords & Tabs

Queen Chords & Tabs

Version: 1 Type: Tab 0 ratings
1 star 2 stars 3 stars 4 stars 5 stars
comments

Headlong Tab

   
#----------------------------------PLEASE NOTE---------------------------------#
#This file is the author's own work and represents their interpretation of the #
#song. You may only use this file for private study, scholarship, or research. #
#------------------------------------------------------------------------------

From:   Fabio Paradiso [F.Paradiso@sirti.it]
Sent:   Thursday, December 11, 1997 3:51 AM

Title:  Headlong
Artist: Queen

So here is my version of this song by the Queen


Intro:

 E F     G  D
---------------------|
---------------------|
-9/10----12-7--------|
-9/10----12-7--------|
-7/8-----10-5--------|
---------------------|

[ Tab from: http://www.guitartabs.cc/tabs/q/queen/headlong_tab.html ]
Chorus:
Headlong............nothing you can do about it
----------------------------------------------|
----------------------------------------------|
----------------------------------------------|
-5-----7---------5-------------------------7--|
-5-----5---------3-------------------------5--|
----------------------------------------------|


This between the chorus and the verse
----------------------------------|
----------------------------------|
----------------------------------|
-------------------------------7--|
-2-3-5--2-3-5--2-3-5--2-3------5--|
----------------------------------|


Verse:
(He used to be a man with a stick......)
-------------------------------------------------------------|
-------------------------------------------------------------|
-------------------------------------------------------------|
-7-8-7--7-8-7---5-6-5--5-6-5---------------------------------|
-5-5-5--5-5-5---3-3-3--3-3-3---5-6-5----7----------5-4-----7-|
-------------------------------3-3-3----5----------3-2-----5-|
Comments