Queen - Dont Stop Me Now Chords & Tabs

 

Dont Stop Me Now Chords & Tabs

Queen Chords & Tabs

Version: 1 Type: Tab 0 ratings
1 star 2 stars 3 stars 4 stars 5 stars
comments

Dont Stop Me Now Tab

                            QUEEN: DONT STOP ME NOW                 JAZZ / 1978
                                 guitar solo
|-------------------------------------------------------------------------------|
|---------10v-------------10v--10v----------------------------b11~-10-----------|
|-12b14---------14r_12p10------------14r12_p10-12-10-9-10v-------------12--10---|
|-------------------------------------------------------------------------------|
|-------------------------------------------------------------------------------|
|-------------------------------------------------------------------------------|
[ Tab from: http://www.guitartabs.cc/tabs/q/queen/dont_stop_me_now_tab.html ]
|----------------------------------------------------------------------------------------|
|------------------------------------11b13v---13r11p10-b13---b13---13r11p10-11-10----10--|
|-12b14---b13--b14--b13--14r12----------------------------------------------------12-----|
|------------------------------10--------------------------------------------------------|
|----------------------------------------------------------------------------------------|
|----------------------------------------------------------------------------------------|
                *
|------------------------------------------------------------|
|-11--10-----------------------------------------------------|
|----------12---10---12b14--12--b14--12--b14--12--14r12p10v--|
|------------------------------------------------------------|
|------------------------------------------------------------|
|------------------------------------------------------------|

|--------------------------------------------------------------------------------------------|
|--------------------------------------------------------------------------------------------|
|----------------------------------------10h12p10----10---10h12p10----10---10h12p10----10v\~~|
|-------------------------------------------------12---------------12---------------12-------|
|-10--12r10-8---8----10/12--10--10--8--------------------------------------------------------|
|-------------------------------------10-----------------------------------------------------|

|------------------------|-20-20-20-20-20-20-20-20-|
|-b15-b15-b15-b15-b15v~~-|-22-22-22-22-22-22-22-22-|
|------------------------|-------------------------|
|------------------------|-------------------------|
|------------------------|-------------------------|
|------------------------|-------------------------|


* this part on the live killers version:
|-------------------------------------------------|
|-13p10h13p10-------------------------------------|
|-------------12p10h12p10-12p10-----------12-10---|
|-------------------------------12---10-----------|
|-------------------------------------------------|
|-------------------------------------------------|


Comments