Queen - Crazy Little Thing Called Love Chords & Tabs

 

Crazy Little Thing Called Love Chords & Tabs

Queen Chords & Tabs

Version: 1 Type: Tab 0 ratings
1 star 2 stars 3 stars 4 stars 5 stars
comments

Crazy Little Thing Called Love Tab

Queen
crazy little thing called love

solos:
1'00"
|------------------------------------------------13\----1010\----|
|-5--5--5--5--5--5-------------------------------12\----1010\----|
|-------------------------------------12-10v---------------------|
|------------------7--75--4--2--0--------------------------------|
|----------------------------------------------------------------|
|----------------------------------------------------------------|

|-/10--10101010----13--12----10------------------------------|
|-/10--10101010------------13--13--12--11p10-----------------|
|-------------------------------------------13p12p1012-------|
|-------------------------------------------------------12---|
|------------------------------------------------------------|
|------------------------------------------------------------|

|-9/10---10-10---10-10--------------------------------------------15---|
|-9/10------10---10-10----13b15---b15---15r13p11-13---11---13b15-------|
|----------------------------------------------------------------------|
|----------------------------------------------------------------------|
|----------------------------------------------------------------------|
|----------------------------------------------------------------------|

|-9/10---10--10----------------------------10---10---|
|-9/10-------10-(12)12--10-----------10-13-10---10---|
|-------------------12----11---10-11-----------------|
|----------------------------------------------------|
|----------------------------------------------------|
|----------------------------------------------------|

|--------13--------13----------------------------13---|
|-13b15-----13b15-----15r13p11-13---11----13b15-------|
|-----------------------------------------------------|
|-----------------------------------------------------|
|-----------------------------------------------------|
|-----------------------------------------------------|
[ Tab from: http://www.guitartabs.cc/tabs/q/queen/crazy_little_thing_called_love_tab.html ]
|-11/12---12-10---12-9---------------------------------------------|
|-11/12------------------10-------10---10---12b13r12p10-12---10vv--|
|--------------------------11---9----------------------------------|
|------------------------------------------------------------------|
|------------------------------------------------------------------|
|------------------------------------------------------------------|

2'00"
|-1010\---9/10--1010----10\-----------------------------------------------|
|-1010\---9/10--1010----10\---------5b7-------8b10---10r8---6-------------|
|-----------------------10\-------------7----------------------7v-----7---|
|------------------------------x---7-------------------------9------9-----|
|-------------------------------------------------------------------------|
|-------------------------------------------------------------------------|

|------------------------------------------/10---10---10-----10--|
|------------------------------------------/10---10-----10-------|
|------7h10p7-------------12-10v---------------------------------|
|----9---------10b12---------------12----------------------------|
|-10-------------------------------------------------------------|
|----------------------------------------------------------------|

|-13--1210--10-----------------------------------9/10---10\---|
|---------13--13--13-----------------------------9/10---10\---|
|--------------------------12--1012----10b--------------------|
|------------------------------------12-----12v---------------|
|-------------------------------------------------------------|
|-------------------------------------------------------------|

|-13--13--13--12--12----10------------------------------------------------------------------|
|-13------13--12--12--12--13b15-13b15v------------------------------------------------------|
|------------------------------------------10b---------10b-----10---12b13r12p1012-----10b---|
|----------------------------------------------1210-------12------------------------12------|
|--------------------------------------------------12---------------------------------------|
|-------------------------------------------------------------------------------------------|

|-----------------------------------------------------------------|
|---------13--13---------------------------13r12------------------|
|-13r12p10---------13r12p10-----------10---14r12---1012--10-------|
|--------------------------12---12-------------------------12--...|
|-----------------------------------------------------------------|
|-----------------------------------------------------------------|
Comments