Queen - Crazy Little Thing Called Love Chords & Tabs

 

Crazy Little Thing Called Love Chords & Tabs

Queen Chords & Tabs

Version: 5 Type: Bass Tab 0 ratings
1 star 2 stars 3 stars 4 stars 5 stars
comments

Crazy Little Thing Called Love Bass Tab

Crazy Little Thing Called Love 
Queen

Transcribed : Ryan Smith (trendi@rezonance.co.za)
Im not a bassist but this song is so cool to play, it sounds great on my
classical guitar. Note the tuning!
[ Tab from: http://www.guitartabs.cc/tabs/q/queen/crazy_little_thing_called_love_btab_ver_5.html ]
 'This thing..'			x2
G|---------------------------------------|-------------------------------
D|-----------------------2h0-3-3-2-------|-------------------------------
A|-----0-2-----0-2---2-5-----------5-2---|-----0-2---------------0-2-5---
D|-0-4-----0-4-----5-------------------5-|-0-4-----3333-5-5--0-4---------
 'This thing..'			x2
G|---------------------------------------|-------------------------------
D|-----------------------2h0-3-3-2-------|-------------------------------
A|-----0-2-----0-2---2-5-----------5-2---|-----0-2---------------0-2-5---
D|-0-4-----0-4-----5-------------------5-|-0-4-----3333-5-5--0-4---------
 '..my baby'
G|-----------------------------------------------------------------------
D|-----------------------------------------------------------------------
A|-------------------3-3-3-3----------------------3-1-----0-0------------
D|-5-2-0-2--5-2-0-2-----------5-2-0-2-8-7-5-3-2-0-----2-2-----3----------
'..cold cold sweat'	
G|------------------------------------------------------------------------
D|------------------------------------------------------------------------
A|-------------------5-4-3------------------------------------------------
D|-------------------------7-6-5---------7-7-5-4-2------------------------
 'gotta be cool..'		x2
 'take a back seat..'
G|---------------------------------------|-------------------------------
D|-----------------------2h0-3-3-2-------|-------------------------------
A|-----0-2-----0-2---2-5-----------5-2---|------0-2---------------0-2-5--
D|-0-4-----0-4-----5-------------------5-|-0-4------3333-5-5--0-4--------
	Solo								
G|------------------------------------------------------------------------
D|------------------------------------------------------------------------
A|-----------------------------------------------------3-1-----0-0--------
D|-8-5-3-5--8-8-5-3-5--0-0-5-5--0-0-0-5-5--8-7-5-3-2-0-----2-2-----3------
        '..yeah'	Clapping    '..love'
G|---------------------------------------------
D|---------------------------------------------
A|--5-4-3--------------------------------------
D|--------7-6-5-----------------------0-5-4-2--
 'This thing..'			x2
G|----------------------------------------|
D|-----------------------2h0-3-3-2--------|
A|-----0-2-----0-2---2-5-----------5-2----|
D|-0-4-----0-4-----5-------------------5--|
								  repeat & fade..
G|----------------------------------------------|-------------------|--
D|----------------------------------------------|-------------------|--
A|-----0-2---------------0-2---------------0-2--|-1111-3-3-5-5-5-5--|--
D|-0-4-----3333-5-5--0-4-----3333-5-5--0-4------|-------------------|--
Comments