Queen - Crazy Little Thing Called Love Chords & Tabs

 

Crazy Little Thing Called Love Chords & Tabs

Queen Chords & Tabs

Version: 2 Type: Bass Tab 0 ratings
1 star 2 stars 3 stars 4 stars 5 stars
comments

Crazy Little Thing Called Love Bass Tab

From: harlow@waikato.ac.nz (STEPHEN HARLOW)
Subject: TAB: Crazy Little Thing Called Love

This is how I play Crazy Little Thing Called Love by Queen. The bass line isn't
an exact transcription off the record, but is my version (my favourite parts
culled from the studio recording and various live performances). Anyway have
fun...

Play this twice...
G-+--------------4--+--------------4--+--------7--7--9--+--5--5--4--4-----+
D-|-----4--7--7-----|-----4--7--7-----|--5--9-----------|--------------5--|
A-|--5--------------|--5--------------|-----------------|-----------------|
E-+-----------------+-----------------+-----------------+-----------------+

Then...
G-+--------------4--+--------------+----------4---4--7--+
D-|-----4--7--7-----|--------3--3--|-----4--7---7-------|
A-|--5--------------|--1--1--------|--5-----------------|
E-+-----------------+--------------+--------------------+

That comprises the 1st and 3rd verses and the outro.

Second verse goes...
G-+-----------------+-----------------+--------------+-----------------+
D-|-----------------|-----------------|--------------|-----------------|
A-|-----7--9--9--7--|-----7--9--9--7--|--3--3--3--3--|-----7--9--9--7--|
E-+--3--------------+--3--------------+--------------+--3--------------+

G-+--------------+--------------+
D-|--8--7--5-----|--------------|
A-|-----------8--|--6--5--------|
E-+--------------+--------8--6--+
[ Tab from: http://www.guitartabs.cc/tabs/q/queen/crazy_little_thing_called_love_btab_ver_2.html ]
G-+-------------------+----------------+----------------+----------------+
D-|-------------------|----------------|----------------|--7-7--4--3-----|
A-|--7--7-------------|--5-4-3---------|---------7-7-7--|-------------7--|
E-+--------5-5--5--1--+---------5-4-3--+--0-0-0---------+----------------+

3rd verse (same as for 1st verse) fits in here.

Then the guitar solo...
G-+--------------+----------------+--------------+-------------4--+
D-|--8--5-----5--|--8-8--5-----5--|--------5--5--|-----4--7-7-----|
A-|--------8-----|----------8-----|--5--5--------|--5-------------|
E-+--------------+----------------+--------------+----------------+

G-+----------------+-----------+
D-|--7-7--5--------|-----------|
A-|----------8--6--|--5--3--1--|
E-+----------------+-----------+

G-+-------------------+----------------+------------------+
D-|-------------------|----------------|-----------4-5-7--|
A-|--7--7-------------|--5-4-3---------|---------7--------|
E-+--------5-5--5--1--+---------5-4-3--+--0-0-0-----------+

Then the outro, basically the 1st verse pattern with the first riff repeated on
and on (and on if live) you can make up some variations!

I think all the bits are here you just need to listen to the recording and
arrange them. Hope you can follow it all not standard notation but it's the
best I can do! Sorry I'm too lazy!

Stephen
-- 
Stephen Harlow		   "All over the world men and women are worrying
Chemistry Department	    because they cannot develop as they are
University of Waikato	    supposed to develop... Don't fret yourself...
Hamilton, NZ		    Develop what you have..." E.M. Forster


Comments