Queen - Bring Back That Leroy Brown Chords & Tabs

 

Bring Back That Leroy Brown Chords & Tabs

Queen Chords & Tabs

Version: 1 Type: Tab 0 ratings
1 star 2 stars 3 stars 4 stars 5 stars
comments

Bring Back That Leroy Brown Tab

Queen: Bring Back That Leroy Brown

ukelele TAB sketch
A|-3-3---2---2-0---|-3-3-3-2---2-0---|-3-------------------2-------2---|
E|-3-3-3-1-------3-|-3-3-3-1---1-1-3-|-3-------------------3-------3---|
C|-4-4---2-------4-|-4-4-4-2---2-2-4-|-4-------------------3-------3---|
G|-----------------|-----------------|---------------------------------|

|-3-3---2---2-0---|-3-3-3-2---2-0---|-3---3---3-3---3-3---2-----2-2---|
|-3-3-3-1-------3-|-3-3-3-1---1-1-3-|-3---3---2-1---3-3---3-----3-3---|
|-4-4---2-------4-|-4-4-4-2---2-2-4-|-4---4---3-2---4-4---3-----3-3---|
|-----------------|-----------------|---------------5-5---------------|

|-3---3---3---3---2---2---2---2---3-3-3-3---3-3---0------5-----3---|
|-3---3---3---3---3---3---3---3---3-3-3-3---3-3---0------4-----5---|
|-4---4---4---4---3---3---3---3---4-4-4-4---4-4---1------5-----4---|
|------------------------------------------------------------------|

|-3---3---3-3-3-3-3---3---3-3-3---|-3---3---3---3---3-3-3-3-3-3-3-|
|-3---3---3-3-3-3-5---5---5-5-5---|-0---0---1---1---2-2-2-2-3-3-3-|
|-4---4---4-4-4-4-5---5---5-5-5---|-0---0---2---2---3-3-3-3-4-4-4-|
|---------------------------------|-------------------------------|
[ Tab from: http://www.guitartabs.cc/tabs/q/queen/bring_back_that_leroy_brown_tab.html ]
|-3--3---3-3-3---2-2-2-2---2-2-2-3-------3---3---2-2-2-2-1---1-0---0---3----|
|-3--3---3-3-3---0-0-0-0---0-0-0-5-------3---3---2-2-2-2-1---1-0---0---3----|
|-4--4---4-4-4---2-2-2-2---2-2-2-4-------4---4---3-3-3-3-2---2-1---1---4----|
|-*-------------------------------------------------------------------------|

solo
|-3-----------3-----------3----------|
|---5-----------3h5---------3-----3--|
|-------5-----------6p3---------4----|
|---------7--------------------------|


|-3---2---3--------|
|-1---3---4---5----|
|-5---4---3---2----|
|------------------|

solo 2
|--6---6---6-----7---7-7---7--xxxx9---9-7----9-9\--8-7-..-------|
|--8---8---8-8---9---9-9---9-9xxxx8---8-8-10-8-8\--7-7----------|
|--9---9---9---9-7---7-7---7--xxxx9---9-9----9-9\--7-7----------|
|--10--10--10--10----9-9---9--xxxx------------------------------|


guitar solo
|-------------------------------------------------------------|
|--------87-----------------------------------810-12/1415/17--|
|-(5)-789--108108------------------------57/9-----------------|
|----------------1010-----------------57----------------------|
|--------------------------3--0--4/57-------------------------|
|-------------------------------------------------------------|

|-1517-15---15(17)-1517-15-------------1517-15-----------------------------|
|--------18---------------17\151315/17--------17\151315-1315-13-----13-(0)-|
|--------------------------------------------------------------14-12-------|
|--------------------------------------------------------------------------|
|--------------------------------------------------------------------------|
|--------------------------------------------------------------------------|
Comments