Queen - Another One Bites The Dust Chords & Tabs

 

Another One Bites The Dust Chords & Tabs

Queen Chords & Tabs

Version: 9 Type: Bass Tab 0 ratings
1 star 2 stars 3 stars 4 stars 5 stars
comments

Another One Bites The Dust Bass Tab

I did this tab completly by ear and with some help from my friends and i think it 
is 100% correct. Enjoy!

Another One Bites The Dust

Intro

G|-----------------|-----------------|
D|-----------------|-----------------| 
A|-----------------|-----------------|
E|-53-0-0-0-000305-|-53-0-0-0-000305-|

Main Riff/Verse

G|-----------------|-----------------|-----------------|-----------------|-----------------|
D|-----------------|-----------------|-----------------|-----------------|-----------------|
A|-----------------|-----------------|-----------------|-----------------|-----------------|
E|--0-0-0--000305--|--0-0-0--000305--|--0-0-0--000305--|--0-0-0--000305--|--0-0-0--000305--|
			
G|-----------------|-----------------|
D|-----------------|-----------------|
A|-----------------|-----------------|
E|--0-0-0--000305--|--0-0-0--000305--|
			
Pre Chorus

G|-----------------|-----------------|-----------------|-----------------|
D|----------5------|-----------------|----------5------|-----------------|
A|-33-3-45---------|-33-3-45---------|-33-3-45---------|-----------------|
E|-------------3---|--------------3--|-------------3---|-55--5-6-7--7--3-|

Chorus

G|-----------------|-----------------|-----------------|-----------------|
D|-----------------|-----------------|-----------------|-----------------|
A|-----------------|-----------------|-----------------|-----------------|
E|--0-0-0--000305--|--0-0-0--000305--|-2--7-6--5-5-5---|--2----------3---|

Verse

G|-----------------|-----------------|-----------------|-----------------|
D|-----------------|-----------------|-----------------|-----------------|
A|-----------------|-----------------|-----------------|-----------------|
E|--0-0-0--000305--|--0-0-0--000305--|--0-0-0--000305--|--0-0-0--000305--|


Pre Chorus
[ Tab from: http://www.guitartabs.cc/tabs/q/queen/another_one_bites_the_dust_btab_ver_9.html ]
G|-----------------|-----------------|-----------------|-----------------|
D|----------5------|-----------------|----------5------|-----------------|
A|-33-3-45---------|-33-3-45---------|-33-3-45---------|-----------------|
E|-------------3---|--------------3--|-------------3---|-55--5-6-7--7--3-|


Chorus 2

G|-----------------|-----------------|-----------------|-----------------|-----------------|
D|-----------------|-----------------|-----------------|-----------------|-----------------|
A|-----------------|-----------------|-----------------|-----------------|-----------------|
E|--0-0-0--000305--|--0-0-0--000305--|--0-0-0--000305--|-2--7-6--5-5-5---|--2----------3b-0|

Bass Rest (24 Bars)

Verse

G|-----------------|-----------------|-----------------|-----------------|
D|-----------------|-----------------|-----------------|-----------------|
A|-----------------|-----------------|-----------------|-----------------|
E|-53-0-0-0-000305-|--0-0-0--000305--|--0-0-0--000305--|-53-0-0-0-000305-|


Pre Chorus

G|-----------------|-----------------|-----------------|-----------------|
D|----------5------|-----------------|----------5------|-----------------|
A|-33-3-45---------|-33-3-45---------|-33-3-45---------|-----------------|
E|-------------3---|--------------3--|-------------3---|-55--5-6-7--7--3-|



Chorus 2

G|-----------------|-----------------|-----------------|-----------------|-----------------|
D|-----------------|-----------------|-----------------|-----------------|-----------------|
A|-----------------|-----------------|-----------------|-----------------|-----------------|
E|--0-0-0--000305--|--0-0-0--000305--|--0-0-0--000305--|-2--7-6--5-5-5---|--2----------3---|

Outro

G|-----------------|-----------------|
D|-----------------|-----------------|  
A|-----------------|-----------------|
E|-0-0-0000305----|-53-0-0-0-000305-|

Ending

G|-----------------|-----------------|-----------------|-----------------|
D|----------5------|-----------------|----------5------|-----------------|
A|-33-3-45---------|-33-3-45---------|-33-3-45---------|-----------------|
E|-------------3---|--------------3--|-------------3---|-55--5-6-7--7--3-|

Comments