Queen - A Kind Of Magic Chords & Tabs

 

A Kind Of Magic Chords & Tabs

Queen Chords & Tabs

Version: 4 Type: Bass Tab 0 ratings
1 star 2 stars 3 stars 4 stars 5 stars
comments

A Kind Of Magic Bass Tab

   
                           A KIND OF MAGIC (Bassline)
                              As recorded by Queen
                      (From the 2002 Album A KIND OF MAGIC)


Gtr I (E A D G) - 'Bass'

  Moderately Fast Q=131
 4/4
  Gtr I
  Wx13          E E E E E E E E    E E E E E E E E   E E E E E E E E
|-------------|-----------------||-----------------|-----------------|
|-------------|-----------------||-----------------|-----------------|
|-------------|-----------------||-----------------|---------------0-|
|-------------|-5---5---5-0-2-0-||-5---5---5-0-2-0-|-5---5---5-2-0---|


  E E E E E E E E   E E E E E E E E   E E E E E E E E   E E E E E E E E
|-----------------|-----------------|-----------------|------------------|
|-----------------|-----------------|-----------------|------------------|
|-2---2---2-------|-2---2---2-------|-5---5---5-------|-5---5---5--------|
|-----------4-2-4-|-----------4-2-4-|-----------7-5-7-|-----------7-5-7--|


  E E E E E E E E   E E E E E E E E   E E E E E E E E   E E E E E E E E
|-----------------|-----------------|-----------------|------------------|
|-----------------|-----------------|-----------------|------------------|
|-----------------|-----------------|-----------------|------------------|
|-5---5---5-0-2-0-|-5---5---5-0-2-0-|-5---5---5-0-2-0-|-5---5---5-0-2-0--|


  E E E E E E E E   E E E E E E E E   E E E E E E E E   E E E E E E E E
|-----------------|-----------------|-----------------|------------------|
|-----------------|-----------------|-----------------|------------------|
|-2---2---2-------|-2---2---2-------|-5---5---5-------|-5---5---5--------|
|-----------4-2-4-|-----------4-2-4-|-----------7-5-7-|-----------7-5-7--|


  E E E E E E E E   E E E E +E  Q  E    Q  E E Q  E S S   Q  E S S Q  E E
|-----------------|---2--------------||-----------------|------------------|
|-----------------|-----4-2-(2)------||-----------------|------------------|
|-----------------|-------------4--2-||-----------------|---------------4--|
|-5---5---5-0-2-0-|------------------||-2----2-2----0-1-|-2----0-1-2-------|


  Q  E E Q.   E   Q  E E E E E E   Q  E E Q  E E   Q  E E Q  E E
|---------------|----------------|---------------|----------------|
|---------------|----------------|---------------|-4---------0-1--|
|-5----0-5----0-|-5----5-5-4-2-0-|-------------4-|------4---------|
|---------------|----------------|-2----2-2------|--------2-------|


  E E E E E E E E   E E E E E E E E    E E E E E E E E   E E E E E E E E
|-----------------|-----------------||-----------------|------------------|
|-2-2-2-2-2-2-2---|-----------------||-----------------|------------------|
|---------------2-|-----------------||-5-5-2-0-5-5-2-0-|-5-5-2-0-5-5-2-0--|
|-----------------|-0-0-0-0-0-0-0-0-||-----------------|------------------|


  E E E E E E E E   E E E E E E E E   E E E E E E E E   E E E E E E E E
|-----------------|-----------------|-----------------|------------------|
|-----------------|-----------------|-----------------|------------------|
|-----------------|-----------------|-5-5-2-0-5-5-2-0-|-5-5-2-0-5-5-2-0--|
|-5-5-2-0-5-5-2-0-|-5-5-2-0-5-5-2-0-|-----------------|------------------|


  E E E E E E E E   E E E E E E E E   E E E E E E E E   E E E E E E E E
|-----------------|-----------------|-----------------|------------------|
|-----------------|-----------------|-----------------|------------------|
|-----------------|-----------------|-----------------|------------------|
|-5-5-2-0-5-5-2-0-|-5-5-2-0-5-5-2-0-|-0-0-0-0-0-0-0-0-|-3-3-3-3-3-3-3-3--|


  E E E E E E E E   E E E E E E E E   E E E E E E E E   E E E E E E E E
|-----------------|-----------------|-----------------|------------------||
|-----------------|-----------------|-----------------|---------4-2------||
|-5-5-2-0-5-5-2-0-|-5-5-2-0-5-5-2-0-|-----2-4-----2-4-|-----2-4-----4-2--||
|-----------------|-----------------|-0-0-----0-0-----|-0-0--------------||


  E E E E E E E E   E E E E E E E E   E E E E E E E E   E E E E E E E E
|-----------------|-----------------|-----------------|------------------|
|-----------------|-----------------|-----------------|------------------|
|-----------------|-----------------|-2---2---2-------|-2---2---2--------|
|-5---5---5-0-2-0-|-5---5---5-0-2-0-|-----------4-2-4-|-----------4-2-4--|


  E E E E E E E E   E E E E E E E E   E E E E E E E E   E E E E E E E E
|-----------------|-----------------|-----------------|------------------|
|-----------------|-----------------|-----------------|------------------|
|-5---5---5-------|-5---5---5-------|-----------------|------------------|
|-----------7-5-7-|-----------7-5-7-|-5---5---5-0-2-0-|-5---5---5-0-2-0--|


  E E E E E E E E   E E E E E E E E   E E E E E E E E   E E E E E E E E
|-----------------|-----------------|-----------------|------------------|
|-----------------|-----------------|-----------------|------------------|
|-----------------|-----------------|-2---2---2-------|-2---2---2--------|
|-5---5---5-0-2-0-|-5---5---5-0-2-0-|-----------4-2-4-|-----------4-2-4--|


  E E E E E E E E   E E E E E E E E   E E E E E E E E   E E E S S E E E E
|-----------------|-----------------|-----------------|-------------------||
|-----------------|-----------------|-----------------|-------------------||
|-5---5---5-------|-5---5---5-------|-----------------|-----------------0-||
|-----------7-5-7-|-----------7-5-7-|-5---5---5-0-2-0-|-5---5---5-0-2-0---||


  E E E E E E E E   E E E E E E E E   E E E E E E E E   E E E E E E E E
|-----------------|-----------------|-----------------|------------------|
|-----------------|-----------------|-----------------|------------------|
|-5---5---5-0-2-0-|-5---5---5-0-2-0-|-----------------|------------------|
|-----------------|-----------------|-5-5-2-0-5-5-2-0-|-5-5-2-0-5-5-2-0--|

[ Tab from: http://www.guitartabs.cc/tabs/q/queen/a_kind_of_magic_btab_ver_4.html ]
  E E E E E E E E   E E E E E E E E   E E E E E E E E   E E E E E E E E
|-----------------|-----------------|-----------------|------------------|
|-----------------|-----------------|-----------------|------------------|
|-5---5---5-0-2-0-|-5---5---5-0-2-0-|-----------------|------------------|
|-----------------|-----------------|-5-5-2-0-5-5-2-0-|-5-5-2-0-5-5-0-2--|


  E E E S S E E E E   E E E S S E E E E
|-------------------|-------------------|
|-------------------|-------------------|
|-5---5---5-5-0-2-0-|-5---5---0-5-0-2-0-|
|-------------------|-------------------|


  E E E E E E E E   E E E E E E E E   E E E E E E E E
|-----------------|-----------------|-----------------|
|-----------------|-----------------|-----------------|
|-----------------|-------------2-0-|-5---5---5-0-2-0-|
|-5---5---5-0-2-0-|-5---5---5-0-----|-----------------|


  E E E S S E E E E   E E E S S E E E E
|-------------------|-------------------|
|-------------------|-------------------|
|-5---5---0-5-0-2-0-|-------------------|
|-------------------|-5---5---0-5-0-2-0-|


  E E E S S E E E E   E E E E E E E E   E E E E E E E E
|-------------------|-----------------|-------------------|
|-------------------|-----------------|-------------------|
|-------------------|-----------2-4-2-|-------------2-3---|
|-5---5---0-5-0-2-2-|-0---0---0-------|-3---3---3-3-------|


  E E E S S E E E E   E E E S S E E E E   E E E E E E E E   E  Q  E +E  E E E
|-------------------|-------------------|-----------------|--------------------|
|-------------------|-------------------|-----------------|---/4--2-(2)--------|
|-5---5---0-5-0-2-0-|-5---5---0-5-0-2-5-|-----------------|-------------4-2-4--|
|-------------------|-------------------|-0---0---0---0---|-0------------------|


  E E E E E E E E   E E E E E E E E   E E E E E E E E   E E E E E E E E
|-----------------|-----------------|-----------------|------------------|
|-----------------|-----------------|-----------------|------------------|
|-5-5-2-0-5-5-2-0-|-5-5-2-0-5-5-2-0-|-----------------|------------------|
|-----------------|-----------------|-5-5-2-0-5-5-2-0-|-5-5-2-0-5-5-2-0--|


  E E E E E E E E   E E E E E E E E   E E E E E E E E   E E E E E E E E
|-----------------|-----------------|-----------------|------------------|
|-----------------|-----------------|-----------------|------------------|
|-5-5-2-0-5-5-2-0-|-5-5-2-0-5-5-2-0-|-----------------|------------------|
|-----------------|-----------------|-5-5-2-0-5-5-2-0-|-5-5-2-0-5-5-2-0--|


  E E E E E E E E   E E E S S E E E E   E E E S S E E E E   E E E E E E  Q
|-----------------|-------------------|-------------------|-------------------|
|-----------------|-------------------|-------------------|-2---2---2---/9\---|
|-----------------|-------------------|-5---5---0-5-2-0---|-------------------|
|-0---0---0---0---|-3---3---0-3---3-3-|-------------------|-------------------|


  E E Q  H       E E E E E E E E   E E E E E E E E
|-------------||-----------------|-----------------|
|-------------||-----------------|-----------------|
|-------------||-5-5-2-0-5-5-2-0-|-5-5-2-0-5-5-2-0-|
|-0-----------||-----------------|-----------------|


  E E E E E E E E   E E E E E E E E
|-----------------|-------------------|
|-----------------|-------------------|
|-----------------|-------------------|
|-5-5-2-0-5-5-2-0-|-5-5-2-0-5-5-2-0---|


  E E E E E E E E   E E E E E E E E   E E E E E E E E   E E Q  H
|-----------------|-----------------|-----------------|-------------||
|-----------------|-----------------|-----------------|-------------||
|-5-5-2-0-5-5-2-0-|-5-5-2-0-5-5-2-0-|-----------------|-------------||
|-----------------|-----------------|-5-5-2-0-5-5-2-0-|-5-----------||


    E E E E E E E E   E E E E E E E E   E E E E E E E E   E E E E E E E E
||------------------|-----------------|-----------------|-----------------|
||o-----------------|-----------------|-----------------|-----------------|
||o-5-5-2-0-5-5-2-0-|-5-5-2-0-5-5-2-0-|-----------------|-----------------|
||------------------|-----------------|-5-5-2-0-5-5-2-0-|-5-5-2-0-5-5-2-0-|


  E E E E E E E E   E E E E E E E E   E E E E E E E E   E E E E E E E E   3x
|-----------------|-----------------|-----------------|-------------------||
|-----------------|-----------------|-----------------|------------------o||
|-5-5-2-0-5-5-2-0-|-5-5-2-0-5-5-2-0-|-----------------|------------------o||
|-----------------|-----------------|-5-5-2-0-5-5-2-0-|-5-5-2-0-5-5-2-0---||


  E E E E E E E E   E E E E E E E E   E E E E E E E E   E E E E E E E E
|-----------------|-----------------|-----------------|------------------*|
|-----------------|-----------------|-----------------|------------------*|
|-5-5-2-0-5-5-2-0-|-5-5-2-0-5-5-2-0-|-----------------|------------------*|
|-----------------|-----------------|-5-5-2-0-5-5-2-0-|-5-5-2-0-5-5-2-0--*|


Duration Legend
---------------
W - whole; H - half; Q - quarter; E - 8th; S - 16th; T - 32nd; X - 64th; a - acciaccatura
+ - note tied to previous; . - note dotted; .. - note double dotted
Uncapitalized letters represent notes that are staccato (1/2 duration)
Irregular groupings are notated above the duration line
Duration letters will always appear directly above the note/fret number it represents the
duration for.  Duration letters with no fret number below them represent rests.  Multi-
bar rests are notated in the form Wxn, where n is the number of bars to rest for.  Low
melody durations appear below the staff

Tablature Legend
----------------
 h   - hammer-on
 p   - pull-off
 b   - bend
 pb  - pre-bend
 r   - bend release (if no number after the r, then release immediately)
 /\  - slide into or out of (from/to "nowhere")
 s   - legato slide
 S   - shift slide
  - natural harmonic
[n]  - artificial harmonic
n(n) - tapped harmonic
 ~   - vibrato
 tr  - trill
 T   - tap
 TP  - trem. picking
 PM  - palm muting
\n/  - tremolo bar dip; n = amount to dip
 \n  - tremolo bar down
 n/  - tremolo bar up
/n\  - tremolo bar inverted dip
 =   - hold bend; also acts as connecting device for hammers/pulls
 <>  - volume swell (louder/softer)
 x   - on rhythm slash represents muted slash
 o   - on rhythm slash represents single note slash

Misc Legend
-----------
 |  - bar
||  - double bar
||o - repeat start
o|| - repeat end
*|  - double bar (ending)
 :  - bar (freetime)
 $  - Segno
 &  - Coda
Tempo markers -  = BPM(8/16=s8/s16), where s8 = swing 8ths, s16 = swing 16ths


***************************************************************************************
* Generated using Power Tab Editor by Brad Larsen - http://powertab.guitarnetwork.org *
***************************************************************************************
Comments