Queen - A Kind Of Magic Chords & Tabs

 

A Kind Of Magic Chords & Tabs

Queen Chords & Tabs

Version: 3 Type: Bass Tab 0 ratings
1 star 2 stars 3 stars 4 stars 5 stars
comments

A Kind Of Magic Bass Tab

Artist:queen
Title:A kind of magic
Tuning:EADG
Tabber:Justin van Uum

Main riff.It has different rythms.
G--------------------------------------------------------------------|
D-------------------------------------------------------------------:|
A-0-0-0-------0-0-0-------2-2-2-----2-2-2-----5-5-5-----5-5-5-------:|
E------2-0-0-------2-0-0-------4-2-2-----4-2-2-----7-5-5-----7-5-5---|

''The waiting seems,eternity''
G------------------------------|
D-----------------two times----|
A---------------5--5-5--5--5-5-|
E-2--2-2--2--2-2---------------|
[ Tab from: http://www.guitartabs.cc/tabs/q/queen/a_kind_of_magic_btab_ver_3.html ]
''This  rage that lasts a thousand years...''
G--------------------------------------------------------|
D--------------------------------------------------------|
A-----------------------------5-5---5-5---5-5---5-5------|
E-0000000000000-3333333333333----7-5---7-5---7-5---7-5---|

Chorus,during guitar solo,bass solo.
G---------------------------------------------------|
D---------------------------------------------------|
A-7-7---7-7---7-7---7-7---0-0---0-0---0-0---0-0-----|
E----7-5---7-5---7-5---7-5---2-0---2-0---2-0---2-0--|

These are the most important riffs. John throws some licks in but i don't know how to subscribe.
Piece it together.
Comments