Quarashi - Baseline Chords & Tabs

 

Baseline Chords & Tabs

Quarashi Chords & Tabs

Version: 1 Type: Bass Tab 0 ratings
1 star 2 stars 3 stars 4 stars 5 stars
comments

Baseline Bass Tab

   
If you are like me you have been looking for this song
This song is played slapped and popped, but either way is good.
Normal tuning (E,A,D,G)


  Intro (0:02) x4

G|---------------------|
D|----------7-7--------|
A|---------------------|
E|-555\---------8-7-6--|


  Break 1 (0:12) x2

G|--------------------|
D|-------------5------|
A|-----5---8-------8--|
E|--5-----------------|


  Verse (0:22) x8

G|---------------------|
D|----------7-7--------|
A|---------------------|
E|-555\---------8-7-6--|


=========================
Pause at (0:42)
Then play Verse x2 (0:46)
=========================


  Chorus (0:51) x4
[ Tab from: http://www.guitartabs.cc/tabs/q/quarashi/baseline_btab.html ]
G|--------------------------|
D|---------5--6--5--6--5----|
A|--7\----7--7--7--7-----5--|
E|--------------------------|


Play Verse at (1:11) x8


  Break 2 (1:30)
  Not 100% positive here

G|----------------------------------------------|
D|----------------------------------------------|
A|------7777-----7777-----7777---7---6---5------|
E|--5/-------5-5------5-5------5---5---5--5-----|


===========================
Play Chorus (1:35) x4
Then play Break 1 (1:59) x5
Then play Verse (2:24) x2
===========================

=============================================================
Now back to Chorus (2:36) x7
*NOTE* Instead of sliding from the E ( A|--\7--| ) only once,
Do it twice, then thrice every other time. End on a slide.
=============================================================
Play it good,
-BRAD E.
Comments