Qbo - Verdad En Tus Mentiras Chords & Tabs

 

Verdad En Tus Mentiras Chords & Tabs

Qbo Chords & Tabs

Version: 1 Type: Tab 0 ratings
1 star 2 stars 3 stars 4 stars 5 stars
comments

Verdad En Tus Mentiras Tab

Artist: qbo
Song: Verdad en tus mentiras
Album: Qbo
Tabbed by:jaalfransua@hotmail.com
Tuning: BEADF#B
** : palm mute
/ slide

This is the correct tunning, Tonio always uses that tuning  so when you wanna play a qbo song use BEADF#B
[ Tab from: http://www.guitartabs.cc/tabs/q/qbo/verdad_en_tus_mentiras_tab.html ]
Intro/verse
---------------------------------------------------------------------|
---------------------------------------------------------------------|
-----4-4-4-4--5-5-5-5--7-7-7-7-7---------4-4-4-4--5-5-5-5--7---------|
2-2--4-4-4-4--5-5-5-5--7-7-7-7-7----2-2--4-4-4-4--5-5-5-5--7------5--|
2-2--2-2-2-2--3-3-3-3--5-5-5-5-5----2-2--2-2-2-2--3-3-3-3--5------5--|
0-0---------------------------------0-0---------------------------3--|
***                                 ***

Chorus
I wont tab the strumming pattern its very simple, I will just put the chords
------------------|
------------------|
2---10------------|
2---10---10----5--|
0----8---10----5--|
 ---------8----3--|

interlude
-------------------------|
-------------------------|
-------------------------|
-------------------------|
-------------------------|
0-0---0-0-0-0-0-3-5-5-5--|
**     ****************

----------------------------|
----------------------------|
----------------------------|
2-2-2-2-2----3-3-3-3-3-3-3--|
2-2-2-2-2----3-3-3-3-3-3-3--|
0-0-0-0-0----1-1-1-1-1-1-1--|

and that?s all.
Comments