Qbo - Para Seguir Chords & Tabs

 

Para Seguir Chords & Tabs

Qbo Chords & Tabs

Version: 1 Type: Bass Tab

Para Seguir Bass Tab

Intro
|--------------------------------|
|--------------------------------|
|-10-10/9-9-9/7-7----------------|
|-----------------12/10-10-8-8-8-|


Verso 1
|---------------------------|
|---7/9---------------------|
|-10----9-9/7-7-------------| X2
|---------------12/10-10-8--|


Pre coro
|-----------------------------------------------------------------------------|
|-----------------------------------------------------------------------------|
|-----------------------------------------7-7-7-7-7-7-7-7-7-7-7-7-------------|
|-8-8-8-8-8-8-8-8-10-10-10-10-10-10-10-10-------------------------10-10-10-10-|


                                                                               puente
|--------------------------------------------------------------------------------------|-7/9---------|
|--------------------------------------------------------------------------------------|----10/9/8/7-|
|-----------------------------------------7-7-7-7-7-7-7-7------------------------------|-------------|
|-8-8-8-8-8-8-8-8-10-10-10-10-10-10-10-10-----------------5-5-5-5-5-5-5-5--8-8-8-8--11-|-------------|


Coro
|------------------------------------------------------------------|
|--------------------------------------------------------------7---|
|-7-7-7-7-7-7-7-7--5-5-5-5-5-5-5-5-------------------------5/7---5-|
|----------------------------------8-8-8-8-8-8-8-8-8-8-8-8---------|


|---------------------------------------------------------------------|
|---------------------------------------------------------------------|
|-7-7-7-7-7-7-7-7--5-5-5-5-5-5-5-5------------------------------------|
|----------------------------------8-8-8-8-8-8-8-8-8-8-8-8-8-8-8-8--8-|

[ Tab from: http://www.guitartabs.cc/tabs/q/qbo/para_seguir_btab.html ]
Pos coro
|--------------------------------|
|--------------------------------|
|-10-10/9-9-9/7-7----------------|
|-----------------12/10-10-8-8-8-|


Verso 1
|---------------------------|
|---7/9---------------------|
|-10----9-9/7-7-------------| X2
|---------------12/10-10-8--|


Pre coro
|-----------------------------------------------------------------------------|
|-----------------------------------------------------------------------------|
|-----------------------------------------7-7-7-7-7-7-7-7-7-7-7-7-------------|
|-8-8-8-8-8-8-8-8-10-10-10-10-10-10-10-10-------------------------10-10-10-10-|


                                                                               puente
|--------------------------------------------------------------------------------------|-7/9---------|
|--------------------------------------------------------------------------------------|----10/9/8/7-|
|-----------------------------------------7-7-7-7-7-7-7-7------------------------------|-------------|
|-8-8-8-8-8-8-8-8-10-10-10-10-10-10-10-10-----------------5-5-5-5-5-5-5-5--8-8-8-8--11-|-------------|


Coro
|------------------------------------------------------------------|
|--------------------------------------------------------------7---|
|-7-7-7-7-7-7-7-7--5-5-5-5-5-5-5-5-------------------------5/7---5-|
|----------------------------------8-8-8-8-8-8-8-8-8-8-8-8---------|


|---------------------------------------------------------------------|
|---------------------------------------------------------------------|
|-7-7-7-7-7-7-7-7--5-5-5-5-5-5-5-5------------------------------------|
|----------------------------------8-8-8-8-8-8-8-8-8-8-8-8-8-8-8-8--8-|


LIRA...
(silencio)

Coro 2
|---------------------------------|
|---------------------------------|
|-7-7-7-7-5-5-5-5-----------------|
|-----------------8-8-8-8-8-8-8-8-| X7


|-------------------|
|-------------------|
|-7-7-7-7-5-5-5-5---|
|-----------------8-|