Qbo - No Mas Chords & Tabs

 

No Mas Chords & Tabs

Qbo Chords & Tabs

Version: 4 Type: Tab 0 ratings
1 star 2 stars 3 stars 4 stars 5 stars
comments

No Mas Tab

Esta rola se la dedico al 3B de la secu Elodia Ramos

Intro
PM............       ............
e---------------------------------------
E---------------------------------------
G-4444-44-4444-------4444-44-4444-------
D-4444-44-4444-8h7-8-4444-44-4444-------
A-2222-22-2222-------2222-22-2222-------
E---------------------------------------

Verso
e--10------9---5---2--------------------
B------------------------33-------------
G---------------------------------------
D---------------------------------------
A---------------------------------------
E---------------------------------------
[ Tab from: http://www.guitartabs.cc/tabs/q/qbo/no_mas_tab_ver_4.html ]
Coro
e---------------------------------------
B------[3]------[3]-----[3]-------------
G------[3]-5555-[3]-----[3]-7777--------
D----------5555----5555-----7777--------
A-7777-----3333----5555-----5555--------
E-7777-------------3333-----------------

Interlude
Pm.....................................
e---------------------------------------
B---------------------------------------
G---------------------------------------
D-2222-22-2222-----2222-22-2222---------
A-2222-22-2222-2/5-2222-22-2222---------
E-0000-00-0000-----0000-00-0000--/10----

Ya esta ,no les voy a poner el orden.Ha en los primeros coros quitenles los
[3].Dudas preguntas o mentadas a antichrist_superstar_666@hotmail.com
Comments