Qbo - No Mas Chords & Tabs

 

No Mas Chords & Tabs

Qbo Chords & Tabs

Version: 3 Type: Tab 0 ratings
1 star 2 stars 3 stars 4 stars 5 stars
comments

No Mas Tab

   
-----------------------------------------------------------------------------
			     qbo - No Mās
-----------------------------------------------------------------------------
Tabbed by: guitarist of lear
Email: kaztro@lycos.de

Tuning: standard

  intro
e|--------------------------------------------------------------------------
B|--------------------------------------------------------------------------
G|--------------------------------------------------------------------------
D|--0-0-0-0-0-0-0-0-0-0-0-0-0-0-0-0-6-0-6-----------------------------------
A|--0-0-0-0-0-0-0-0-0-0-0-0-0-0-0-0-4-0-4--0-0------------------------------
E|--0-0-0-0-0-0-0-0-0-0-0-0-0-0-0-0---0----0-0------------------------------
[ Tab from: http://www.guitartabs.cc/tabs/q/qbo/no_mas_tab_ver_3.html ]
  verse
e|--5-3-0-------------------------------------------------------------------
B|--------0-1-3-------------------------------------------------------------
G|--------------------------------------------------------------------------
D|--------------------------------------------------------------------------
A|--------------------------------------------------------------------------
E|--------------------------------------------------------------------------

  chorus
e|------------------------------------------0------0------0------0----------
B|------------------------------------------0------0------0------0----------
G|-----------5-5-5-5-----------7-7-7-7------0--5-5-5------0--7-7-7----------
D|--2-2-2-2--5-5-5-5--5-5-5-5--7-7-7-7--2-2-2--5-5-5--5-5-5--7-7-7----------
A|--2-2-2-2--3-3-3-3--5-5-5-5--5-5-5-5--2-2-2--3-3-3--5-5-5--5-5-5----------
E|--0-0-0-0-----------3-3-3-3-----------0-0-0---------3-3-3-----------------

h  hammer-on
/  slide up            
\  slidedown 
p  pull- off
~  vibrato                                                                   
+  harmonic                                                                  
x  Mute note
Comments