Qbo - No Mas Chords & Tabs

 

No Mas Chords & Tabs

Qbo Chords & Tabs

Version: 2 Type: Bass Tab 0 ratings
1 star 2 stars 3 stars 4 stars 5 stars
comments

No Mas Bass Tab

Esta rola me tarde en sacarla en 5 minutos espero q les guste

Intro
G-------------------------------------------
D-2-2-2-2--2-2-2-2--2-2--2-2-2-2--2-2-2-2---
A-------------------------------------------
E-----------------------------------------0-

Preverso/Interlude
G-------------------------------------------
D-------------------------------------------
A-------------------------------------------
E-2-2-2-2--2-2-2-2--2-2--2-2-2-2--2-2-2-2--5

Verso
G--------------------------------------------------------------------
D--------------------------------------------------------------------
A-2-2-2-2-2-2-1-1------------------------------------5-5-5-5-5-5-5-5-
E------------------3-3-3-3-3-3-3-3--1-1-1-1-1-1-1-1------------------
[ Tab from: http://www.guitartabs.cc/tabs/q/qbo/no_mas_btab_ver_2.html ]
Coro
G------------------------------------
D------------------------------------
A----------3-3-3-3-----------5-5-5-5-
E-0-0-0-0-----------3-3-3-3----------

Outro
G------------------------------------
D------------------------------------
A----------3-3-3-3-------------------
E-0-0-0-0-----------3-3-3-3--2-------

*Lyrics*

Casi pudiste
meterte en mi
y controlarme asi
solo puedo pensar
que ya no hay mas 
que ya no esta aqui 

Por fin 
no tengo mas cadenas
no mas de ti
Al fin
ni el cielo es eterno
no mas de ti

Casi pudiste 
metete en mi
y controlarme asi
hipnotizandome
no lograras 
entrar de nuevo aqui

Por fin 
no tengo mas cadenas
no mas de ti
Al fin
ni el cielo es eterno
no mas de ti

Por fin... no mas 
al fin te vas
Por fin... no mas 
al fin...

No mas de ti

Al fin
ni el cielo es eterno

No mas de ti

Por fin... no mas 
al fin... te vas
no mas...
no mas...
no mas...

No mas


Ahy esta si tienen dudas escibanme a antichist_superstar_666@hotmail.com
con ulises. Ha por ahi agregenme.
Comments