Qbo - Nada Que Pensar Chords & Tabs

 

Nada Que Pensar Chords & Tabs

Qbo Chords & Tabs

Version: 1 Type: Tab 0 ratings
1 star 2 stars 3 stars 4 stars 5 stars
comments

Nada Que Pensar Tab

   
En esta rola la sexta cuerda va afinada en Dy se la dediko a mis carnales de Orta

Intro   x2
E-----------------------------------|
B-----------------------------------|
G-------------------------------6---|
D-4-6-----0-6-7---2-7-9---7-6-9---7-|
A-4---7---0-------2-------7---------|
D-4-------0-------2-------7---------|

Gtr1   x2
E-----------------------------------|
B-----------------------------------|
G-------------------------------6---|
D-4-6-----0-6-7---2-7-9---7-6-9---7-|
A-4---7---0-------2-------7---------|
D-4-------0-------2-------7---------|
gtr2   x2
E-----------------------------------|
B-----------------------------------|
G-----------------------------------|
D-4-4-4-4-0-0-0-0-2-2-2-2-7-7-7-7---|
A-4-4-4-4-0-0-0-0-2-2-2-2-7-7-7-7---|
D-4-4-4-4-0-0-0-0-2-2-2-2-7-7-7-7---|

Verso   x2
E--------------------------------------------|
B--------------------------------------------|
G--------------------------------------------|
D--------------------------------------------|
A-4-4-4-2-4-2-4--0-0-0--2-2-2-2-2-2-2--0-0-0-|
D-4-4-4-2-4-2-4--0-0-0--2-2-2-2-2-2-2--0-0-0-|
pm. . . . . . .  . . .  . . . . . . .  . . .
E--------------------------------------------|
B--------------------------------------------|
G--------------------------------------------|
D--------------------------------------------|
A-4-4-4-2-4-2-4--0-0-0--2-2-2-2-2-2-2--7-7-7-|
D-4-4-4-2-4-2-4--0-0-0--2-2-2-2-2-2-2--7-7-7-|
pm. . . . . . .  . . .  . . . . . . .

Coro   x2
E-----------------------------------|
B-----------------------------------|
G-----------------------------------|
D-4-4-4-4-0-0-0-0-2-2-2-2-7-7-7-7---|
A-4-4-4-4-0-0-0-0-2-2-2-2-7-7-7-7---|
D-4-4-4-4-0-0-0-0-2-2-2-2-7-7-7-7---|


Verso   x2
E--------------------------------------------|
B--------------------------------------------|
G--------------------------------------------|
D--------------------------------------------|
A-4-4-4-2-4-2-4--0-0-0--2-2-2-2-2-2-2--0-0-0-|
D-4-4-4-2-4-2-4--0-0-0--2-2-2-2-2-2-2--0-0-0-|
pm. . . . . . .  . . .  . . . . . . .  . . .
E--------------------------------------------|
B--------------------------------------------|
G--------------------------------------------|
D--------------------------------------------|
A-4-4-4-2-4-2-4--0-0-0--2-2-2-2-2-2-2--7-7-7-|
D-4-4-4-2-4-2-4--0-0-0--2-2-2-2-2-2-2--7-7-7-|
pm. . . . . . .  . . .  . . . . . . .

Coro   x4
E-----------------------------------|
B-----------------------------------|
G-----------------------------------|
D-4-4-4-4-0-0-0-0-2-2-2-2-7-7-7-7---|
A-4-4-4-4-0-0-0-0-2-2-2-2-7-7-7-7---|
D-4-4-4-4-0-0-0-0-2-2-2-2-7-7-7-7---|

Interlude   x2
E--------------------------------------------|
B--------------------------------------------|
G--------------------------------------------|
D--------------------------------------------|
A-4-4-4-2-4-2-4--4-4-4--0-0-0-0-0-0-0--0-0-0-|
D-4-4-4-2-4-2-4--4-4-4--0-0-0-0-0-0-0--0-0-0-|
pm. . . . . .           . . . . . .
[ Tab from: http://www.guitartabs.cc/tabs/q/qbo/nada_que_pensar_tab.html ]
Solo
E------------------------------------------|
B------------------------------------------|
G-9--------------------9-------------------|
D---7-6--7-6-------------7-6--7-6---7-6----|
A------------9-7--9-9-------------9-----7--|
D------------------------------------------|

E------------------------------------------|
B------------------------------------------|
G-9---------------------9------------9-----|
D---7-6--7-6---6h7-6------7-6--7-6---------|
A------------9-------9~------------9---7-7-|
D------------------------------------------|

Cont.   x2
E-12-------------------------12-----------------------|
B----10-9--10-9-----------------10-9--10-9------------|
G---------------11-9--11-11----------------11-11--9-9-|
D-----------------------------------------------------|
A-----------------------------------------------------|
D-----------------------------------------------------|

E--------------------------------------|
B--------------------------------------|
G-11---9--9-9-9--13-13-13--------------|
D----9-9--9-9-9--13-13-13-----------14-|
A--------------------------11-12-14----|
D--------------------------------------|

Coro   x4
E-----------------------------------|
B-----------------------------------|
G-----------------------------------|
D-4-4-4-4-0-0-0-0-2-2-2-2-7-7-7-7---|
A-4-4-4-4-0-0-0-0-2-2-2-2-7-7-7-7---|
D-4-4-4-4-0-0-0-0-2-2-2-2-7-7-7-7---|

Gtr1   x2
E-----------------------------------|
B-----------------------------------|
G-------------------------------6---|
D-4-6-----0-6-7---2-7-9---7-6-9---7-|
A-4---7---0-------2-------7---------|
D-4-------0-------2-------7---------|
gtr2   x2
E-----------------------------------|
B-----------------------------------|
G-----------------------------------|
D-4-4-4-4-0-0-0-0-2-2-2-2-7-7-7-7---|
A-4-4-4-4-0-0-0-0-2-2-2-2-7-7-7-7---|
D-4-4-4-4-0-0-0-0-2-2-2-2-7-7-7-7---|


Gtr1   x2
E-----------------------------------|
B-----------------------------------|
G-----------------------------------|
D-4-6-----0-6-----2-6-----7-6-------|
A-4---7---0---7---2---7---7---7-----|
D-4-------0-------2-------7---------|
gtr2   x2
E-----------------------------------|
B-----------------------------------|
G-----------------------------------|
D-4-4-4-4-0-0-0-0-2-2-2-2-7-7-7-7---|
A-4-4-4-4-0-0-0-0-2-2-2-2-7-7-7-7---|
D-4-4-4-4-0-0-0-0-2-2-2-2-7-7-7-7---|

E---
B---
G---
D-0-
A-0-
D-0-

Lyrics
=================================================

Se que no cumpli
con lo que prometi
pero no puedes decir
Que, nada te di
que me burle de ti
y que en verdad no estuve aqui

No ahi nada que pensar

Terminara, no volveras
entre mis venas, quedaras

Puedo sentir
lo que piensas de mi
y no se siente nada bien
Si cruzar el umbral
significa huir
entonces que puedo decir

No ahi nada que pensar

Terminara, no volveras
entre mis venas, quedaras
Terminara, un cuento mas
que se me escapa, sin final

ĦĦLo dije!!

No ahi nada que pensar

Terminara, no volveras
entre mis venas, quedaras
Terminara, un cuento mas
que se me escapa, sin final

Terminara...
terminara...
terminara...

Eso es todo, si tienen dudas escribanme a antichrist_superstar_666@hotmail.com ha y x 
me agregan
Comments