Qbo - El Juego Chords & Tabs

 

El Juego Chords & Tabs

Qbo Chords & Tabs

Version: 1 Type: Bass Tab 0 ratings
1 star 2 stars 3 stars 4 stars 5 stars
comments

El Juego Bass Tab

artist:qbo
song:el juego
album:qbo
transcribed by maxz
tabbed by trpelonchaspunk

                             "EL JUEGO"

   intro
G:-------------------------------------------------------------| (x 2)
D:-------------------------------------------------------------|
A:-5-55-555---1-11-111--------------3xxx-3xxx-3xxx-------------|
D:-----------------------3-33-333------------------------------|


   verse
G:------------------------------------------------| (x 2)
D:------------------------------------------------|
A:-55-55-55--—11-11-11---------------33-33-33-----|
D:------------------------33-33-33----------------|

[ Tab from: http://www.guitartabs.cc/tabs/q/qbo/el_juego_btab.html ]
    pre chorus
G:-------------------------|   (x 4)
D:-------------------------|
A:---65-665-665------------|
D:-------------------------|

   chorus
G:----------------------------------------------------------------|  (x 4)
D:----------------------------------------------------------------|
A:--5-55555-5---1-11111-11-1-------------------3-33333-33-3-------|
D:------------------------------3-33333-33-3----------------------|

 (x 2)
G:-----------------------------------------------------------------------|
D:-----------------------------------------------------------------------|
A:-------------------------3-3333-333------------------------------------|
D:---02--02--02--02--02-------------------5-5555-555---0-0000-000--------|

i´m oscar or trpelonchaspunk please send me your comments to maxz6@hotmail.com is the 
qbo tab that maxz use only 4 strings
ok please rate this tab thank´s and byke!
Comments