Qbo - Desvanecer Chords & Tabs

 

Desvanecer Chords & Tabs

Qbo Chords & Tabs

Version: 2 Type: Bass Tab 0 ratings
1 star 2 stars 3 stars 4 stars 5 stars
comments

Desvanecer Bass Tab

artist:qbo
song:desvanecer
album:qbo
transcribed by maxz
tabed by trpelonchaspunk


                                 "DESVANECER"

    intro

 G-----------------------------------------------------------------------
 D-----------------------------------------------------------------------
 A----------------------------------------------------------------------- x2
 E--2-----------2----------3------------33333----2---000--0--------------
 B----0--000000---0-000000---0--000000-----------------------333---------


     1st verse

 G-----------------------------------------------------------------------
 D-----------------------------------------------------------------------
 A----------------------------------------------------------------------- x2
 E--333333333--333333333---222222222---222222222-------------------------
 B-----------------------------------------------------------------------

     you repeat the intro in this part

      chorus

 G-----------------------------------------------------------------------
 D---------9/10--------9/10----------------------------------------------
 A----------------------------------------------------------------------- x2
 E---000----------222---------55555555----22222222222--------------------
 B-----------------------------------------------------------------------

       slap
[ Tab from: http://www.guitartabs.cc/tabs/q/qbo/desvanecer_btab_ver_2.html ]
 G-----------------------------------------------------------------------
 D-----------------------------------------------------------------------
 A-----------------------------------------------------------------------
 E--2p--------------2p------------3p-------------3333---2--000--0--------
 B-----0s--000000s----0s--000000s----0s--000000s-------------------333---


     2nd verse

 G-----------------------------------------------------------------------
 D-----------------------------------------------------------------------
 A----------------------------------------------------------------------- x2
 E--333333333---333333333----222222222---222222222-----------------------
 B-----------------------------------------------------------------------

     in this part you repeat the chorus

     SOLO

 G-----------------------------------------------------------------------
 D-----------------------------------------------------------------------
 A----------------------------------------------------------------------- x2
 E-------------5-------------5-------------------------------------------
 B--5555555555----3333333333---------------------------------------------

    in this part you repeat the chorus x6 times


and in the final do the slap  
ok im oscar or trpelonchaspunk please rate this tab is the best desvanecer´s
tab please send me your comments to maxz6@hotmail.com thank you and bykeˇ
Comments