Qbo - Desvanecer Chords & Tabs

 

Desvanecer Chords & Tabs

Qbo Chords & Tabs

Version: 1 Type: Bass Tab 0 ratings
1 star 2 stars 3 stars 4 stars 5 stars
comments

Desvanecer Bass Tab

Esta rola no la siento muy segura ya que no soy bajero si no guitarro pero yo la oigo así.

Intro
|--------------------------------------
|--------------------------------------
|--2-------------1---------------------            x4
|-----3-3-3-3-3----3-3-3-3-3-----------

Verso
|----------------------------------------------------------
|----------------------------------------------------------
|----------------------------------------------0-0-0-0-0---            x1
|--4-4-4-4-4--2-2-2-2-2------4-4-4-4-4---------------------

Intro  x2
Verso  x1
[ Tab from: http://www.guitartabs.cc/tabs/q/qbo/desvanecer_btab.html ]
Coro
|-------------------------------------------------------------------------
|-------------------------------------------------------------------------
|--3-3-3-3-3-3-3-3--5-5-5-5-5-5-5-5---2-2--2--2-2-----------------------x2
|------------------------------------------------------------3-3--3-3--3--

Intro         x2
Verso        x1
Coro          x2

Interlude
|-----------------------------------------
|-----------------------------------------
|--0-0-0-0-0-0-0-0-0-0-0-0-0-0-0-0-0-0-0--
|-----------------------------------------

Coro            x4
Intro           x4

Ya dije esta tabla no es correcta pero la voy a checar  hasta que salga byek.
Ulises,Si hay correcciones a antichrist_superstar_666@hotmail.com
Comments