Q Of Death - Jimmy The Tree Frog Chords & Tabs

 

Jimmy The Tree Frog Chords & Tabs

Q Of Death Chords & Tabs

Version: 1 Type: Bass Tab 0 ratings
1 star 2 stars 3 stars 4 stars 5 stars
comments

Jimmy The Tree Frog Bass Tab

\---------------------------------------------------------------------
\---------------------------------------------------------------------
\---------------------------------------------------------------------
\--0-2-0-2-0-2-0-2-0-2-0-2-0-2-0-2-0-2-3-3-3-0-2-0-2-0-2-0-2-0-2-0-2-0

Thats almost the wohle song.

the solo is:

\---------------------------------------------------------------------
\---------------------------------------------------------------------
\--------------------------------------------------------------3333333
\-0-00-0-0-3-3-3-0-3-0-3-0-5-0-5-0h3-0-3-2-1-0-3-0-2-0-1--------------

\---------------------------------------------------------------------
\---------------------------------------------------------------------
\222222211111110001100--6--5--4--6--5--5--4--5--5--5--5--5--4--4--5-4-
\---------------------------------------------------------------------
[ Tab from: http://www.guitartabs.cc/tabs/q/q_of_death/jimmy_the_tree_frog_btab.html ]
\---------------------------------------------------------------------
\---------------------------------------------------------------------
\4-4-8-4--------------------------------------------------------------
\----------0-2-0-2-2-0-2-0-2-2-0-2-2-0-2-2-0-2-3-0-2-2-0-0-0-0-0-2-0-0
And the outtro is

\---------------------------------------------------------------------
\---------------------------------------------------------------------
\---------------------------------------------------------------------
\-0-0-3-0-3-3-0-----2---1---3---2---1---6-5-4-3-2-1-6-5-4-3-2-1--0-3-0

To play this song slap all the open notes ans hammer any other notes.
Thats the main riff. the rest you pretty much slap except in the solo 
when you hit the a string, you pick the a string. 

Thats all

Tabbed by brian olofson
Band: Q of Death
Album:Come and fork it north
Song: jimmy the tree frog 1
Instrument: Bass
Q of death are Danny potter:Drums
	       Brian olofson: Bass, Vocals, harmonica
               Steve Phillips: Gitaur
	       Dave Benson: Bass and back up vocals.

Note: Dave plays bass when I get tired. I pretty much do it all:!	
Comments