Q And Not U - So Many Animal Calls Chords & Tabs

 

So Many Animal Calls Chords & Tabs

Q And Not U Chords & Tabs

Version: 1 Type: Bass Tab 0 ratings
1 star 2 stars 3 stars 4 stars 5 stars
comments

So Many Animal Calls Bass Tab

Band: Q and Not U
Song: So Many Animal Calls
Tabbed by: Daniel Rodriguez
E-mail: label1987@hotmail.com

Riff 1
G|---------------------------|(4x)
D|---------------------------|
A|---4-4---4-4---4-4---4-4---|
E|---------------------------|

Riff 2
G|-----------------------------------------------|
D|-----------------------------------------------|
A|-----------------------------------------------|
E|-5-5--5-5--5-5--5-5--0-5-0--5-5--5-5--5-5--5-5-|

Riff 3
G|---------------------|(8x)
D|---------------------|
A|-----5---5---7---7---|
E|---5---5---7---7-----|
[ Tab from: http://www.guitartabs.cc/tabs/q/q_and_not_u/so_many_animal_calls_btab.html ]
Riff 4
G|------------------------------------|
D|------------------------------------|
A|----5>----7>----9>----11>----12>----|
E|------------------------------------|

Riff 5
G|-------------------------------------------|
D|-------------------------------------------|
A|-------------------------------------------|
E|-5-5--5-5--5-5--5-5--5-5--5-5--5-5--5-5--5-|

if you have any comments or corrections e-mail me.enjoy!
Check out other tabs by me:
The Clash "I'm So Bored With The U.S.A."
The Clash "Police and Thieves"
The Clash "Rebel Waltz"
The Clash "The Equaliser"
The Clash "The Crooked Beat"
Black Flag "Paralize"
Patty Smith "Till Victory"
Gang of Four "Love Like Anthrax"
Comments