Python Lee Jackson - In A Broken Dream Chords & Tabs

 

In A Broken Dream Chords & Tabs

Python Lee Jackson Chords & Tabs

Version: 1 Type: Tab 0 ratings
1 star 2 stars 3 stars 4 stars 5 stars
comments

In A Broken Dream Tab

   
I am writing this tab because I had lots of difficulty with the ear transcribing. Now
all you people out there who know and like python lee jackson won't have the same
difficulty that I did. So here it is - enjoy!

INTRO:
|--------------------------------------------------------------------------|
|--------------------------------------------------------------------------|
|--------------------------------------------------------------------------|
|--------------------------------------------------------------------------|
|--------------------------------------------------------------------------|
|--4-4----2-2----1-1----0-0-0----4-4----3-3----11-11-11-11-11-11-11-11-11--|

SOLO 1:
|--14b16---19p18p16-19p18p16-19p18p16-19p18p16--14b16----------------------|
|--------------------------------------------------------12h14p12h14p12h---|
|--------------------------------------------------------------------------|
|--------------------------------------------------------------------------|
|--------------------------------------------------------------------------|
|--------------------------------------------------------------------------|

|-hold bend and gradually release while still continually plucking the string
|--14b16--------------------------------------------------------------------|
|---------------------------------------------------------------------------|
|---------------------------------------------------------------------------|
|---------------------------------------------------------------------------|
|---------------------------------------------------------------------------|

|--------------------------------------19-21-21b23-21-21-19-21-19-----------|
|--12-14-12---14p12h14p12h14p12h14p12---------------------------------------|
|---------------------------------------------------------------------------|
|---------------------------------------------------------------------------|
|---------------------------------------------------------------------------|
|---------------------------------------------------------------------------|

|--18-18-19-21-21b23-19\16----\--19\16--|
|--------------------------------19\16--|
|---------------------------------------|
|---------------------------------------|
|---------------------------------------|
|---------------------------------------|

VERSE 1
            Am            Am/G          Am/F#
every day I spend my time, drinkin' wine, feelin' fine
[ Tab from: http://www.guitartabs.cc/tabs/p/python_lee_jackson/in_a_broken_dream_tab.html ]
       Fmaj7           Am     G     C        
waitin' here to find the sign I can understand,

E
Yes I am.

                      Am           Am/G           Am/F#
In the days between the hours ivory towers, bloody flowers

         Fmaj7           Am             G         C
Push their heads in to the air, I don't care if I ever know,

E
there I go

CHORUS:

      Am               C/G
Don't push your love to far,

    D7/F#                  F
Your wounds won't leave a scar,

      Am               G        C            E
Right now is where you are in a broken dream.

    D7/F#             C/G
Did someone bow their head?

    D7/F#              F
Did someone break the bread?

   Am              G          C            E          
Good people are in bed before nine o'clock.


VERSE 2:
On the pad before my eyes paper cries, telling lies 
The promises you gave from the grave of a broken heart
Hmm

Every day I spend my time drinkin' wine, feeling fine
Waiting here to find the sign that I can understand
Yes I am. Oh.

SOLO 2:
|--14b16----14b16----19p18p16-19p18p16-19p18p16-16--16-19-19b21-21-19-21-19-|
|---------------------------------------------------------------------------|
|---------------------------------------------------------------------------|
|---------------------------------------------------------------------------|
|---------------------------------------------------------------------------|
|---------------------------------------------------------------------------|

|-21-19-16----16-19-21b22-22-21-22-21-22-21-16--14-------------------------|
|--------------------------------------------------16-14b16----------------|
|-----------------------------------------------------------15-15-16-18----|
|--------------------------------------------------------------------------|
|--------------------------------------------------------------------------|
|--------------------------------------------------------------------------|

|------------------------------------------------|
|--16--19p16-19p16-19p16-16--18b19-16-16--19b21--|
|------------------------------------------------|
|------------------------------------------------|
|------------------------------------------------|
|------------------------------------------------|

STRUCTURE:

Intro
Solo 1
Vrse 1
Chorus
Verse 2
Solo 2
Chorus to fade

tabbed by Samuel Smith.
Comments