Puya - Oasis Chords & Tabs

 

Oasis Chords & Tabs

Puya Chords & Tabs

Version: 1 Type: Tab 0 ratings
1 star 2 stars 3 stars 4 stars 5 stars
comments

Oasis Tab

Band:Puya 
Song: oasis  
Album: Fundamental
Tabbed by: roachjuice

- tune down 2 steps 
- 6th: 4 steps 
- max. 2/3 distortion 
d|-------------------------
a|-------------------------
f|-------------------------
c|--0-00-3---0-00-3\\2\\1----
g|--0-00-3---0-00-3\\2\\1----
c|--0-00-3---0-00-3\\2\\1----

d|------------------ 
a|------------------ 
f|------------------ 
c|--0-00-3----2^2--- 
g|--0-00-3----2^2--- 
c|--0-00-3----2^2--- 

VERSE (wah) 
d|--10-10-----------
a|--10-10--12-10----
f|--10-10--12-10----
c|------------------
g|------------------
c|------------------


[ Tab from: http://www.guitartabs.cc/tabs/p/puya/oasis_tab.html ]
FILLING
d|------------------------------
a|------------------------------
f|------------------------------
c|--------3---------------------
g|-----5----5---3-5-----5-3-5---
c|--0----------------0----------
CHORUS
d|--------------------------------------
a|--------------------------------------
f|--------------------------------------
c|--3-5--55-3-5-3-----5-3-5--55-3-5-3---
g|--3-5--55-3-5-3-----5-3-5--55-3-5-3---
c|--3-5--55-3-5-3-----5-3-5--55-3-5-3---
BREAK
d|---------------------------------------
a|---------------------------------------
f|---------------------------------------
c|-----------------------8-6-10-8-6-10---
g|-----------------------8-6-10-8-6-10---
c|--6666--8-6...[SOLO]...8-6-10-8-6-10---



OUTRO
d|--------------------
a|--------------------
f|--------------------
c|---1-3--6--repeat---
g|---1-3--6-----------
c|---1-3--6-----------



d|----------------------------
a|----------------------------
f|----------------------------
c|---3-33--6---6\\5\\4--5\\4\\3---
g|---3-33--6---6\\5\\4--5\\4\\3---
c|---3-33--6---6\\5\\4--5\\4\\3---



d|-------------------------
a|-------------------------
f|-------------------------
c|--1-3-6---6\\5\\4--5\\4\\3---
g|--1-3-6---6\\5\\4--5\\4\\3---
c|--1-3-6---6\\5\\4--5\\4\\3---



END
d|-------------------------|
a|-------------------------|
f|-------------------------|
c|---6\\5\\4--5\\4\\3--4\\3\\2---|
g|---6\\5\\4--5\\4\\3--4\\3\\2---|
c|---6\\5\\4--5\\4\\3--4\\3\\2---|


well it took me a while but here it is any questions email me at roachjuice@hotmail.com
Comments