Push Stars - Wild Irish Rose Chords & Tabs

 

Wild Irish Rose Chords & Tabs

Push Stars Chords & Tabs

Version: 1 Type: Tab 0 ratings
1 star 2 stars 3 stars 4 stars 5 stars
comments

Wild Irish Rose Tab

   
Wild Irish Rose
Tabbed by Brian Renkas

Standard tuning (e-a-d-g-b-e)
Capo on fret 8

This is one of the best songs I've ever heard and I think everyone should be a
fan of the Push Stars

For those of you who know this song, you know that it is full of some intricate 
finger picking.  I have decided to tab the chords and some ideas for finger picking 
patterns and let the users figure out the rest.

Intro and Verses

e|--0-0-0-|
B|--3-3-3-|
G|--0-0-0-|	(4x)
D|--0-0-0-|
A|----2-3-|
E|--3-----|

a sample chord progression for the verse would be
      
e|------0-------0-------0-----|
B|-----3-3-----3-3-----3-3----|
G|----0---0---0---0---0---0---|	(4x)
D|---0-----0-0-----0-0-----0--|
A|----------2-------3---------|
E|--3-------------------------|

Either strum or pick this progression once each of the four lines
of each verse


Chorus

e|--0-0-0-0-0-0--|
B|--3-3-3-3-3-3--|
G|--2-0-0-2-0-0--|	
D|--0-0-2-0-0-2--|
A|--0-0-3-0-0-3--|
E|--2-2---2-2-0--|
[ Tab from: http://www.guitartabs.cc/tabs/p/push_stars/wild_irish_rose_tab.html ]
And everytime I see you dance my wild Irish rose
I want to jump up on stage with you, I want to give you my clothes


e|--0-0-0---|
B|--3-3-3---|
G|--0-0-0---|	
D|--0-0-2---|
A|--2-0-2---|
E|--3-2-----|

And let the devil take my soul


As you get more and more intricate, you could also try a progression of 

e|--0-0-0-0-0-0-0-0----0-0-0---|
B|--3-3-3-3-3-3-3-3----3-3-3---|
G|--2-4-0-0-2-4-0-0----0-0-0---|	
D|--0-0-0-2-0-0-0-2----0-0-2---|
A|--0-0-0-3-0-0-0-3----2-0-2---|
E|--2-2-2---2-2-2------3-2-----|

Solo before final verse ("I never met my great grandfather")/Ending

Coming off the Em7 at the end of the chorus you can go into the solo.  
This solo below is to be strummed.  Once again feel free to try and imitate 
the finger picking pattern.

e|--0-0-0-0--0-0-0-0--0-0--0-0---0-2-5---|
B|--3-0-0-1h-3-3-3-0p-3-0p-3-0p--3-3-3---|
G|--0-0-0-0--2-0-0-0--0-0--0-0---0-0-0---|	
D|--2-2-0-0--0-2-0-0--0-0--2-2---2-0-0---|
A|--2-2-2-2--0-3-2-2--0-0--3-3---3-3-3---|
E|-----------2---3-3--2-2----------------|

** You'll notice the difference if you hammer on the second string and pull off
on the second string where it is noted









Comments