Purusam - The Great Conquer Chords & Tabs

 

The Great Conquer Chords & Tabs

Purusam Chords & Tabs

Version: 1 Type: Tab 0 ratings
1 star 2 stars 3 stars 4 stars 5 stars
comments

The Great Conquer Tab

========================================================
=PURUSAM - THE GREAT CONQUER (From Daybreak Chronicles)=
========================================================

Tab By: rockapak
email: rockapak#yahoo.com
Tune Guitars Down 1/2 to step to Eb

==================================================
="Time has now caught up with the remaining city =
=of Relm... And so has the war"                  =
==================================================

Orchestra arranged for three guitars

*********************
*Gtr.1 (Low Strings)*
*********************
					   x4   
E---------------------------------------------------------------------------------|
B---------------------------------------------|-----------------------------------|
G*-------------------------------------------*|-----------------------------------|
D*-------------------------------------------*|-----------------------------------|
A--3--3-3-3-3--3-3-3-3--3-3-3--4-4-4--1-1-1---|--3--3-3-3-3--3-3-3-3--3-3-3-3--3-3|
E---------------------------------------------------------------------------------|

E---------------------------------------------------------------------------------|
B---------------------------------------------------------------------------------|
G---------------------------------------------------------------------------------|
D---------------------------------------------------------------------------------|
A-3-3--3-3-3-3--3-3-3-3--3-3-3-3--3-3-3-3--3-3-3-3--3-3-3-3--3-3-3-3--3-3-3-3--3-3|
E---------------------------------------------------------------------------------|

E---------------------------------------------------------------------------------|
B----------------------------------------------------|----------------------------|
G----------------------------------------------------|*---------------------------|
D----------------------------------------------------|*---------------------------|
A-3-3--3-3-3-3--3-3-3-3--3-3-3-3--3-3-3-3--3-3-3-3--|--3--3-3-3-3--3-3-3-3--3-3-3|
E---------------------------------------------------------------------------------|
[ Tab from: http://www.guitartabs.cc/tabs/p/purusam/the_great_conquer_tab.html ]
E---------------------------------------------------------------------------------|
B---------------------------------------------------------------------------------|
G---------------------------------------------------------------------------------|
D---------------------------------------------------------------------------------|
A-3--3-3-3-3--3-3-3-3--3-3-3-3--3-3-3-3--3-3-3--4--4-4-4-4--4-4-4-4--4-4-4-4--4-4-|
E---------------------------------------------------------------------------------|

       ___________________________________ ____________________
      |1.				  | 2.                 |
E-----|-----------------------------------|--------------------||
B-----|-----------------------------------|--------------------||
G-----|----------------------------------*|--------------------|| segue to 
D-----|----------------------------------*|--------------------|| "Doom"
A-4-4-|4-4-4-4--4-4-4-4--4-4-4-4--4-4-4---|--4-4-4-4--4-4-4-4-||
E-----|-----------------------------------|--------------------||


**********************
*Gtr.2 (High Strings)*
**********************

E---------------------------------------------------------------------------------|
B----13~~----15---------13~~----15-------------15~---16~---18~------------15~---|
G------------------------------------------17~------------------------17~---------|
D---------------------------------------------------------------------------------|
A---------------------------------------------------------------------------------|
E---------------------------------------------------------------------------------|

		       x2
E--18~--17~--16~---16------------------------------------------||
B-------------------------|---------------8---9---8---6---------||
G-------------------------|*-------7---8-------------------6---*|| segue to
D-------------------------|*--10-------------------------------*|| "Doom"
A-------------------------|-------------------------------------||
E---------------------------------------------------------------||

***************
*Gtr.3 (Piano)*
***************  

The Piano comes in at about 

			   x8			        x6
E---15-13----------------13------16-15----------------15---||
B---------16-15-13-15-16------|--------18-16-14-16-18------||
G*---------------------------*|*--------------------------*|| segue to
D*---------------------------*|*--------------------------*|| "Doom"
A-----------------------------|----------------------------||
E----------------------------------------------------------||
Comments