Purusam - The Final Fantasy Chords & Tabs

 

The Final Fantasy Chords & Tabs

Purusam Chords & Tabs

Version: 1 Type: Tab 0 ratings
1 star 2 stars 3 stars 4 stars 5 stars
comments

The Final Fantasy Tab

========================================================
=PURUSAM - THE FINAL FANTASY (From Daybreak Chronicles)=
========================================================

Transcribed By: rockapak
email: rockapak@yahoo.com
Tune Guitars Down 1/2 step!

Piano arranged for two guitars

*********************
*Gtr.1 ("Low Piano")*
*********************

E---------------------------------------------------------------------------------|
B-----------------------------------------------------|---------------------------|
G-----4------4------4------4------4------4------4~~---|*--4--4--4--4--3--3--1--1--|
D-----0------0------0------0------0------0------0~~---|*--0--0--0--0--0--0--0--0--|
A--4------4------4------4------4------4------4--------|---------------------------|
E---------------------------------------------------------------------------------|

			 x4						       x2
E---------------------------------------------------------------------------------|
B---------------------------|-----------------------------------------------------|
G--------------------------*|----------------------------------------------------*|
D--4--4--4--4--4--4--4--4--*|----------------------------------------------------*|
A--2--2--2--2--2--2--2--2---|--6--6--6--6--6--6--6--6---2--2--2--2--2--2--2--2----|
E------------------------------4--4--4--4--4--4--4--4---0--0--0--0--0--0--0--0----|

						   x2
E---------------------------------------------------------------------------------|
B-----------------------------------------------------|---------------------------|
G*---------------------------------------------------*|---------------4------4----|
D*--6--6--6--6--6--6--6--6---------------------------*|---------------0------0----|
A---4--4--4--4--4--4--4--4---7--7--7--7--7--7--7--7---|------------4------4------4|
E----------------------------5--5--5--5--5--5--5--5-------------------------------|

		  fade out
E-----------------------------||
B-----------------------------||
G--4------4------4------4-----|| end
D--0------0------0------0-----||
A------4------4------4--------||
E-----------------------------||

-----------------------------------------------------------------------------------

**********************
*Gtr.2 ("High Piano")*
**********************
[ Tab from: http://www.guitartabs.cc/tabs/p/purusam/the_final_fantasy_tab.html ]
E-------------------------------------------------------13------------------------|
B-----------5--9~------5--7~------5--9~~---|--12~----11----12-11------------------|
G--6~----------6~---------6~---------6~~---|*--------------------13-11-10-11--10--|
D------------------------------------------|*-------------------------------------|
A------------------------------------------|--------------------------------------|
E---------------------------------------------------------------------------------|

		     x2
E------------------------------------11-13-14-16-13-14-16-19---18--19-16--16-14-13|
B-----------------------|--12~----11----------------------------------------------|
G-11-8---11-10--11-8---*|---------------------------------------------------------|
D----------------------*|---------------------------------------------------------|
A-----------------------|---------------------------------------------------------|
E---------------------------------------------------------------------------------|

E-11-----------11-13-14-13-14-16-19---18--19-16--16-14-13-------------------------|
B----12~----11--------------------------------------------14---|---16~---12-------|
G--------------------------------------------------------------|*-----------15--13|
D--------------------------------------------------------------|*-----------------|
A--------------------------------------------------------------|------------------|
E---------------------------------------------------------------------------------|

					             x2
E-----------------------------------------------------------16~---15---------16~--|
B--16~---12---------16~---12---------16~---12-----------|------------17--16-------|
G-----------15--13-----------15--13-----------15--13---*|*------------------------|
D------------------------------------------------------*|*------------------------|
A-------------------------------------------------------|-------------------------|
E---------------------------------------------------------------------------------|

					       x2
E--15---------16~---15---------16~---15--------------15-16-15-16-15-16-15-16--/21-|
B-----17--16-----------17--16-----------17--16----|-------------------------------|
G------------------------------------------------*|-------------------------------|
D------------------------------------------------*|-------------------------------|
A-------------------------------------------------|-------------------------------|
E---------------------------------------------------------------------------------|

					           fade out
E-16-15-----------------------------------------------------------||
B--------17-16-14-16-13--|-14----5--9~-------5--7~------5--9~-----||
G------------------------|-----------6~----------6~---------6~-----||
D------------------------|-----------------------------------------||
A------------------------|-----------------------------------------||
E------------------------------------------------------------------||
Comments