Purusam - Above No One Chords & Tabs

 

Above No One Chords & Tabs

Purusam Chords & Tabs

Version: 1 Type: Tab 0 ratings
1 star 2 stars 3 stars 4 stars 5 stars
comments

Above No One Tab

========================================================
=PURUSAM - ABOVE NO ONE(From The Way Of The Dying Race)=
========================================================

Trancribed By: rockapak
email: rockapak@yahoo.com

Tune guitars Down 1 to step to D! (DAFCGD)

*****************
*Johnny's Guitar*
*****************

E---------------------------------------------------------------------------------|
B---------------------------------------------------------------------------------|
G*---------A.H.------5-4-5-7-5-4-0------------54-0---------------------------A.H.|
D*------7-5-7~--------------------------7-5-7------------97-----97-------7-5-7~-|
A---0-0--------0-0-0----------------0-0--------------8-8-75-8-8-75---0-0--------|
E---------------------------------------------------------------------------------|
   pm..|      pm....|		   pm..|	    pm..|   pm..|     pm..|

							   x2		Verse 1
E---------------------------------------------------------------------------------|
B-------------------------------------------------------------|-------|-----------|
G-------5-4-5-7-5h7p5p4-0------------54-0-------------------*|-------|-----------|
D------------------------------7-5-7------------97-----97--*|--5~---|--5-----6--|
A-0-0-0--------------------0-0--------------8-8-75-8-8-75---|--3~---|--3---3-3--|
E---------------------------------------------------------------------------------|
 pm....|		  pm..|		   pm..|   pm..|		    pm

E---------------------------------------------------------------------------------|
B---------------------------------------------------------------------------------|
G-----------A.H......|------------------------------------------------------------|
D-5----6--3h5-b(6)r5~---5---------------5-----6---------------6-----5-------------|
A-3--3-3----------------3-3-3-3--3-3-3--3-3-3-3-3-3-3--3-3-3--3-3-3-3-3-3-3--3-3-3|
E---------------------------------------------------------------------------------|
    pm			 pm...........|  pm..| pm...........|  pm..| pm...........|

E---------------------------------------------------------------------------------|
B---------------------------------------------------------------------------------|
G------------------------8-8-7-7--------------------------------------------------|
D-5-----6--5-5-10-10-5-5---------5-5--/5---------------5-----6---------------6----|
A-3-3-3-3-----------------------------/3-3-3-3--3-3-3--3-3-3-3-3-3-3--3-3-3--3-3-3|
E---------------------------------------------------------------------------------|
   pm..|  pm.........................|  pm...........|  pm..| pm...........|  pm..|

						       Chorus
E---------------------------------------------------------------------------------|
B-----------------------------------------------------|---------------------------|
G----------------------------------------8-8-7-7------|---------------------------|
D-5---------------5-----6--5-5-10-10-5-5---------5-5--|--7----------5-------------|
A-3-3-3-3--3-3-3--3-3-3-3-----------------------------|-----7--5h7-------------3-2|
E----------------------------------------------------------------------1/1-3----|
   pm...........|  pm..|  pm........................|                     pm..|
	
E---------------------------------------------------------------------------------|
B---------------------------------------------------------------------------------|
G---------------------------------------------------------------------------------|
D-------7-7-5-5-7-10--7-7-5-5-7-10--7-7-5-5-7-10--7-7-5-5-7-10--7-7-5-5-7-10--7-7-|
A-0-------------------------------------------------------------------------------|
E---3-----------------------------------------------------------------------------|
       pm.........................................................................

E---------------------------------------------------------------------------------|
B---------------------------------------------------------------------------------|
G----------/7-7-5-5-7-7-5-5-5h7p5p4p0-4h5p4p0-------------------------------------|
D-5-5-7-10-------------------------------------7-7-5-5-7-10--7-7-5-5-7-10--7-7-5-5|
A---------------------------------------------------------------------------------|
E---------------------------------------------------------------------------------|
 ..........................|		      pm..................................

E---------------------------------------------------------------------------------|
B---------------------------------------------------------------------------------|
G------------------------------------------------/7-7-5-5-7-7-5-5-5h7p5p4p0-4h5p4p|
D-7-10--7-7-5-5-7-10--7-7-5-5-7-10--7-7-5-5-7-10----------------------------------|
A---------------------------------------------------------------------------------|
E---------------------------------------------------------------------------------|
 ................................................................|
								     Acoustic Gtr.
E---------------------------------------------------------------------------------|
B----|--5-5-5-5--5-5-5-5----5-5-5-5--5-5-5-5------------|-----------|-------------|
G0---|--7-7-7-7--7-7-7-7----7-7-7-7--7-7-7-7--7-7--6h7--|--Verse-2--|*-----2------|
D----|--7-7-7-7--7-7-7-7----7-7-7-7--7-7-7-7--0-0--7----|-----------|*---2---2----|
A----|--5-5-5-5--5-5-5-5----5-5-5-5--5-5-5-5-------5----|-----------|--0--------0-|
E---------------------------------------------------------------------------------|
							   pm..|

E---------------------------------------------------------------------------------|
B---------------------------------------------------------------------------------|
G-2--------0------0---------0------0--------------------------2------2--------0---|
D---2----2---2------2-----2---2------2----------------------2---2------2----2---2-|
A-----------------------------------------------3-2-0-----0--------0--------------|
E------3--------3------2---------2------1-0-1-3-------3-------------------3-------|
			   ___________________ ____________
			  |1. 		      |2.	   | Dist.
E-------------------------|-------------------|------------|----------------------|
B-------------------------|--------------6----|------------|----------------------|
G----2--------2------0----|--------4-5-7-----*|------------|----------5-4---4~----|
D------0----0---0------2--|-/3-5-7-----------*|--------3~--|------2---------------|
A-------------------------|-------------------|------------|--0-0---0-----0-----0-|
E--3------2--------2------|-------------------|--1/1-----|----------------------|
							     pm..| pm    pm    pm

E---------------------------------------------------------------------------------|
B----------------------------------------------------------A.H.-------------------|
G---------54-2p0---------A.H.-------A.H...|----------5-4---4~------------54-2p0-|
D-2------------------------5~---------5~----------2---------------2---------------|
A---0-0-0--------------5---------5------5~----0-0---0-----0-----0---0-0-0---------|
E------------------3-3---3----3----3----------------------------------------------|
   pm....|	  pm..| pm        pm         pm..| pm    pm    pm  pm....|
[ Tab from: http://www.guitartabs.cc/tabs/p/purusam/above_no_one_tab.html ]
E------------------------------------------------------------------------3--------|
B---------------------------|----------65---5~--------6531-------------6-5-3--|
G--------A.H.------A.H..|---|----------54---4~--------542---4-4-4-5-4---------5|
D---------5~--------5~------|------2---------------2------------------------------|
A-----5---------5-----5~----|--0-0---0-----0-----0---0----------------------------|
E-3-3---3----3----3---------------------------------------------------------------|
 pm..| pm        pm	      pm..| pm	  pm    pm  pm	      pm........|

E------------------3-----------------------------a.h.--------------------------3--|
B-----3--------------6-5-3-------3----------65---5~--------6531--------------6|
G-4-5----4-4-4-5-4---------5-4-5------------54---4~--------542----4-4-4-5-4----|
D---------------------------------------2---------------2-------------------------|
A-----------------------------------0-0---0-----0-----0---0-----------------------|
E---------------------------------------------------------------------------------|
        pm........|		   pm..| pm    pm    pm  pm	    pm........|

E------------------------3--------------------------------------------------------|
B-5-3-------3--------------6-5-3-------3--|--5-5-5-5--5-5-5-5---------------------|
G-----5-4-5----4-4-4-5-4---------5-4-5----|--7-7-7-7--7-7-7-7------------------2--|
D-----------------------------------------|--7-7-7-7--7-7-7-7------------------2--|
A-----------------------------------------|--5-5-5-5--5-5-5-5------------------0--|
E--------------------------------------------------------------0-0-0--0--1--3-----|
 	     pm.........|				      pm.............|

							   Chorus
E---------------------------------------------------------------------------------|
B--------------------------------------------------------|------------------------|
G----4---5-----7-------------------2------4---5------7---|*-----------------------|
D----5---5-----7-------------------2------5---5------7---|*--7-7-5-5-7-10--7-7-5-5|
A-0--0------0--0-------------------0---0--0-------0--0---|------------------------|
E------------------0-0-0--0--1--3-------------------------------------------------|
 pm	   pm	  pm.............|    pm         pm	    pm....................

E---------------------------------------------------------------------------------|
B---------------------------------------------------------------------------------|
G--------------------------------------------------------------/7-7-5-5-7-7-5-5-5h|
D-7-10--7-7-5-5-7-10--7-7-5-5-7-10--7-7-5-5-7-10--7-7-5-5-7-10--------------------|
A---------------------------------------------------------------------------------|
E---------------------------------------------------------------------------------|
 ..............................................................................|

		    x2
E----------------------------------------------------||
B------------------|---------------------------------||
G7p5p4p0-4h5p4p0--*|--2~------2-p0-2-----/5-----/7---|| end
D-----------------*|---------------------------------||
A------------------|-----------------5h7----3h5------||
E----------------------------------------------------||

------------------------------------------------------------------------------------ 

**************
*Jon's Guitar*
**************

E---------------------------------------------------------------------------------|
B---------------------------------------------------------------------------------|
G---------------------------------------------------------------------------------|
D--2-2---2-2-2---2-2--------97-----97---2-2---2-2-2---2-2-------97-----97-----|
A--0-0---0-0-0---0-0----8-8-75-8-8-75---0-0---0-0-0---0-0---8-8-75-8-8-75----0|
E---------------------------------------------------------------------------------|
  pm.......................|   pm..|     pm......................|   pm..|

E---------------------------------------------------------------------------------|
B--------------------------------------|------------------------------------------|
G--------------------------------------|------------------------------------------|
D-----------------------------------5--|--5----6---5----6----5---------------5----|
A--2---3---5------0---2---3---5-----3--|--3--3-3---3--3-3----3-3-3-3--3-3-3--3-3-3|
E-------------3------------------3------------------------------------------------|
					    pm       pm       pm...........|  pm..|

E---------------------------------------------------------------------------------|
B---------------------------------------------------------------------------------|
G---------------------------------------------------------------------------------|
D6---------------6-----5---------------5-----6~---5---------------5-----6---------|
A3-3-3-3--3-3-3--3-3-3-3-3-3-3--3-3-3--3-3-3-3~---3-3-3-3--3-3-3--3-3-3-3-3-3-3--3|
E---------------------------------------------------------------------------------|
  pm...........|  pm..| pm...........|  pm..|      pm...........|  pm..| pm.......

				         Chorus
E---------------------------------------------------------------------------------|
B--------------------------------------|------------------------------------------|
G--------------------------------------|------2-----2--------0-----0--------0-----|
D------5-----6---------------5-----6~--|----2---2-----2----2---2-----2----2---2---|
A-3-3--3-3-3-3-3-3-3--3-3-3--3-3-3-3~--|--0-------0-------------------------------|
E--------------------------------------------------------3-------3------2-------2-|
 ....|  pm..| pm...........|  pm..|      pm      pm     pm      pm     pm      pm

E---------------------------------------------------------------------------------|
B-------------------------------------------------------------------|--5-5-5-5--5-|
G-0---------------------2------4---5------7----2------4---5------7--|--7-7-7-7--7-|
D---2-------------------2------5---5------7----2------5---5------7--|--7-7-7-7--7-|
A-------------3-2-0-----0---0--0-------0--0----0---0--0-------0--0--|--5-5-5-5--5-|
E-----1/1-3-------3-------------------------------------------------------------|
	  pm..|		   pm	      pm	  pm         pm

						    Acoustic Guitar
E---------------------------------------------------------------------------------|
B-5-5-5---5-5-5-5--5-5-5-5------------|-----------|-------------------------------|
G-7-7-7---7-7-7-7--7-7-7-7--7-7--6h7--|--Verse-2--|*------2-----2-------0------0--|
D-7-7-7---7-7-7-7--7-7-7-7--0-0--7----|-----------|*----2---2-----2---2---2------2|
A-5-5-5---5-5-5-5--5-5-5-5-------5----|-----------|---0-------0-------------------|
E-------------------------------------------------------------------3-------3-----|
										__
									       |1.
E------------------------------------------------------------------------------|--|
B------------------------------------------------------------------------------|--|
G-----0-----0-------------------------2-----2-------0------0-------0------0----|--|
D---2---2-----2---------------------2---2-----2---2---2------2---2---2------2--|--|
A-----------------------3-2-0-----0-------0------------------------------------|--|
E-2-------2-----1-1-3-------3-----------------3--------3-----2--------2------|-1|

 _________________ ________________
|2.		  |		   |
E-----------------|----------------|----------------------------------------------|
B-------------6---|----(Dist.)-----|----------------a.h---------------------------|
G-------4-5-7----*|----------------|*----------5-4---4~--------542p0------------|
D----------------*|----Vol.swell---|*------2------------------------------------5-|
A-----------------|--3-
Comments