Purusam - A New Season Chords & Tabs

 

A New Season Chords & Tabs

Purusam Chords & Tabs

Version: 1 Type: Tab 0 ratings
1 star 2 stars 3 stars 4 stars 5 stars
comments

A New Season Tab

===================================================
 PURUSAM - A NEW SEASON (From Daybreak Chronicles)
===================================================

Transcribed By: rockapak
email: rockapak@yahoo.com
Tune Down 1/2 to step to Eb

 Acoustic Guitar         x10
E------------------------------------------------0------------------4--2----------|
B--------4-----------4------|------0-4-0-------0---0-------0-4-0----4-------------|
G------4---4-------4---4----|----2-------2---2-------2---2-------2--6--4--------2-|
D----5-------5---5-------5--|---------------------------------------6--4----------|
A--7-----------7------------|--4-----------4-----------4------------4--2--h3--4---|
E---------------------------------------------------------------------------------|

E---------------0------------------4---2------------------------------------------|
B-0-4-0-------0---0-------0-4-0----4--------------7-----4---------------7---------|
G-------2---2-------2---2-------2--6---4----4-----9-----6------4--------9---------|
D----------------------------------6---4----6-----9-----6------6--------9---------|
A---------4-----------4------------4---2----6-----7-----4------6--------7---------|
E-------------------------------------------4------------------4------------------|

  Verse
E-------0---------0---------0--------0---------3--2-----------3--2-------------0--|
B-------0---------0---------0--------0--------------0--------------0-----------0--|
G*----0---------0---------0--------0---------5--------5-----5--------5-------0----|
D*--2---------2---------2--------2---------4--------------4----------------2------|
A----------------------------------------0--------------0-------------------------|
E-0---------0---------0--------0-----------------------------------------0--------|
					   
			        x2  Chorus (Gtr.1)*  
E---------------------------------------------------------------------------------|
B-3-----2-----2-----2-----3--------|----------------------------------------------|
G---0-----0-----0-----0-----0-----*|----------------------------------------------|
D-----2-----2-----2-----2-----2---*|------------------------------------------5-5|
A----------------------------------|-2-2-2-2-2-2-2-2-2-2-2-2-2-2-2-2-2-3-3|
E------------------------------------0-0-0-0-0-0-0-0-0-0-0-0-0-0-0-0-0-----|
*=The riffs for Gtr.2 are at the end of the tab	   		           pm....|
									   Riff 1
E---------------------------------------------------------------------------------|
B-------------------------------------------------|------|-------|--------|-------|
G-------------------------------------------------|------|-Verse-|-Chorus-|*-4-4-4|
D-5-5-5-5--5-4-4--------------------------------|--9~--|-------|--------|*-6-6-6|
A-3-3-3-3--3-2-2--2-2-2-2-2-2-2-2--3----5---|--7~--|-------|--------|--6-6-6|
E-------------------0-0-0-0-0-0-0-0--1----3------0~----------------------4-4-4|

			(end Riff 1) x3      	             Acoustic Guitar
E---------------4-----------4-------------------------------------------0---------|
B-----------------5-----------5-----|-----------------------|-------3-----3-------|
G-6-6-6-------6-----6-----6-----6--*|-4-4-4---6~~-----------|-----2---------2---2-|
D-7-7-7-----6-----------6----------*|-6-6-6---7~~-let-ring--|---3-----------------|
A-7-7-7---4-----------4-------------|-6-6-6---7~~-----------|-0---------------0---|
E-5-5-5-------------------------------4-4-4---5~~---------------------------------|

E------0---------------------------------------------------------------------0~---|
B---1----1-------------------------------5~------5----------------8~--0------0~---|
G-2--------2-------0-------5p4---------5-----------5------------7-------0----2~---|
D------------------------7-----5-----7---------7-----7--------9-----------2--2~---|
A--------------2h3----/8---------7h8---------8---------8--/10----------------0~---|
E------------1--------------------------------------------------------------------|

  Guitar Solo (Johnny)
E---------------------------------------------------------------------------------|
B------------------------------------------------------------10b(12)--b(13)--(12)r|
G--7b(9)r7b(9)~---(9)r7---------------------------7-9-9-12-9----------------------|
D-----------------------10-9b(10)r9-7------7-9-10---------------------------------|
A---------------------------------------10----------------------------------------|
E---------------------------------------------------------------------------------|
				      pm...............|
[ Tab from: http://www.guitartabs.cc/tabs/p/purusam/a_new_season_tab.html ]
E--------------------------------------------------------------------/10----------|
B-10--8~~--8b(10)r8-------------------------------12--12b(13)r12-10------12----12b|
G-------------------7~~--------9~~------------------------------------------------|
D-------------------------10-9------10-9-5-/7~~-----------------------------------|
A---------------------------------------------------------------------------------|
E---------------------------------------------------------------------------------|

E---------------/12~~---12-10----------/15-------------------/12~-----/17~~--15---|
B(13)r12-10--8----------------13-12-13-----13-12-10----10-12-------10-----------15|
G---------------------------------------------------12----------------------------|
D---------------------------------------------------------------------------------|
A---------------------------------------------------------------------------------|
E---------------------------------------------------------------------------------|

E--------------15-/20-19~~-----------12h17p12h17~--/19-15----------15-------/20-17|
B-17b(18)r17~----------------------13--------------------17-----------17----------|
G--------------------------------14------------------------16------------16-------|
D------------------------------14----------------------------17-------------------|
A----------------------------12--------------------------------19-----------------|
E---------------------------------------------------------------------------------|

E-------17----------------------------------------12~~---------------------------|
B-17------17------/15~---17~---15--13-12-8--9--12-------------|--------|----------|
G---17------17------------------------------------------------|-Chorus-|--Riff-1--|
D-----19------19----------------------------------------------|--------|-(7-times)|
A-------------------------------------------------------------|--------|----------|
E---------------------------------------------------------------------------------|

E---------5~~-----------------------------------------|
B---------5~~-----------------------------------------|
G-4-4-4---6~~-----------------------------------------| end
D-6-6-6---7~~-----------------------------------------|
A-6-6-6---7~~--let-ring-till-end----------------------|
E-4-4-4---5~~-----------------------------------------|

-----------------------------------------------------------------------------------

Riffs for guitar 2

 Chorus (Gtr.2)
E---------------------------------------------------------------------------------|
B---------------------------------------------------------------------------------|
G---------------------------------------------------------------------------------|
D------/5-4---------------4-5-4---------------4-5-4---------------4-5-4-----------|
A-----------5---7-5---5-7-------7-5-7-5---5-7-------7-5-7-5---5-7-------7-5-7-5---|
E-------------------7-------------------7-------------------7-------------------7-|
                   pm......|   pm....| pm......|   pm....| pm......|   pm....| pm

E---------------------------------------------------------------------------------|
B---------------------------------------------------------------------------------|
G---------------------------------------------------------------------------------|
D-----4-5-4---------------4-5-4---------------4-5-4---------------4-5-4-----------|
A-5-7-------7-5-7-5---5-7-------7-5-7-5---5-7-------7-5-7-5---5-7-------7-5-7h9p7p|
E-------------------7-------------------7-------------------7---------------------|
 pm....|   pm....| pm......|   pm....| pm......|   pm....| pm......|   pm..|

           Gtr.2 during guitar solo (Acoustic)
E---------------------------------------------------------------------------------|
B--------|--------3-----------3-----------1-----------1---------------------------|
G--------|*-----2---2-------2---2-------2---2-------2---2---------0----------5----|
D--------|*---3-------3---3-------3---2-------2---2-------2----------------7---5-5|
A-5------|--0-----------0-----------0-----------0-------------2h3---3-2--8--------|
E---5~------------------------------------------------------1---------------------|

							    .  x2  Dist.
E-----------------------------------------------------------0~--------------------|
B------------------------5--------------8------------8------0~---|----------1---5-|
G----------0-----------5---5----------7---7--------7---7----2~--*|--2---4---2---7-|
D--------------------7-------7------9-------9----9-------9--2~--*|--3---5---2---7-|
A-7----2-3---3-2--/8------------/10-----------10------------0~---|--3---5---0---5-|
E----1------------------------------------------------------.-------1---3---------|
 .=play first time only

E------------------------|
B------------------9~----|
G--2--4---------9--9~----|
D--3--5------9--9--9~----|
A--3--5---7--7--7--7~----|
E--1--3---0--0--0--0~----|
Comments