Purusam - A Mind Forever Voyage Chords & Tabs

 

A Mind Forever Voyage Chords & Tabs

Purusam Chords & Tabs

Version: 1 Type: Tab 0 ratings
1 star 2 stars 3 stars 4 stars 5 stars
comments

A Mind Forever Voyage Tab

==================================
=PURUSAM - A MIND FOREVER VOYAGE =
==================================

****************************
*         note:            *
*This song is really called*
* A Mind Forever Voyaging  *
* but the ones who printed *
*   the cover fucked up    *
****************************

Transcribed By: rockapak
email: rockapak@yahoo.com

*****************
*Johnny's Guitar*
*****************

Tune Down To Eb!!!!

E---------------------------------------------------------------------------------|
B--10--------9-------10--------------------------10--------9-------10-------------|
G--11--11~---9--9~---11--11~---------------------11--11~---9--9~---11--11~--------|
D------11~------9~-------11~---7-9------6b(7)~-------11~------9~-------11~---7-9--|
A-----------------------------------2---------------------------------------------|
E-----------------------------------0---------------------------------------------|
			      pm..|					    pm..|

E---------------0~----------------------------------------------------------------|
B---------------0~----------|-----------------------------------------------------|
G---------------7~----------|*----------------------------------------------------|
D------6b(7)~---7~---x-----|*----------------------------------------------------|
A--2------------5~---x\----|-----------------------------------------------------|
E--0--------------------------2/2-2-2-2-2/2-2-2-2-5-3-2-0--2/2-2-2-2-2/2-|
				  pm......|   pm..............|    pm......|   pm.
	   x4	
E---------------------------------------------------------------------------------|
B-------------|--------|-----------|--10--------9-------10------------------------|
G------------*|--------|--Verse-1--|--11--11~---9--9~---11--11~-------------------|
D------------*|--------|---(Bass)--|------11~------9~-------11~---7-9------6b(7)~-|
A-------------|--2~----|-(&Drums)--|-----------------------------------2----------|
E-2-2-2--0-0-----0~----------------------------------------------------0----------|
 ...........|							 pm..|

								 Chorus
E---------------------------------------------------------------------------------|
B--10--------9-------10-----------------------------------------|-----------------|
G--11--11~---9--9~---11--11~----------------------------6---7---|-----------------|
D------11~------9~-------11~---7-9------6b(7)~--7---9-----------|--4---4-6-7-6-4--|
A-----------------------------------2---------------------------|----7-----------7|
E-----------------------------------0---------------------------------------------|
			      pm..|	

E---------------------------------------------------------------------------------|
B---------------------------------------------------------------------------------|
G-------------------4p2----2p0------4p2----2p0------------------------------------|
D--4--4-6-7-6-4-----5p4----4p2------5p4----4p2------4---4-6-7-6-4----4---4-6-7-6-4|
A----7----------7-------3------3--------3------3------7-----------7----7----------|
E---------------------------------------------------------------------------------|

								   Guitar Solo
E---------------------------------------------------------------------------------|
B---------------------------------|--------|-----------|----------|--10--10--10---|
G----4p2---2p0-----4p2----2p0-----|--------|--Verse-2--|--Chorus--|---------------|
D----5p4---4p2-----5p4----4p2-----|--------|--(Bass)---|----------|---------------|
A-7------3-----3-------0------0---|--A.H.--|-(&Drums)--|----------|---------------|
E-------------------------------------5~~-----------------------------------------|

								  end Guitar Solo
E---------------------------------------------------------------------------------|
B--10--10--10--10--10--10--10--10--10--10--10--10--10--10--10--10--10--10--10--10-|
G---------------------------------------------------------------------------------|
D--(Johnny-uses-some-wierd-pedals-in-this-solo-that-I-just-can't-figure-out)------|
A---------------------------------------------------------------------------------|
E---------------------------------------------------------------------------------|

   Riff 3   								       x2
E---------------------------------------------------------------------------------|
B----------------------------------------3--3--3--3--3--3--3--3-------------------|
G*--11-11-11-11-11-11-11-11-11-11-11-11--5--5--5--5--5--5--5--5--0--0--0--0------*|
D*--11-11-11-11-11-11-11-11-11-11-11-11--5--5--5--5--5--5--5--5--2--2--2--2---5--*|
A----9--9--9--9--9--9--9--9--9--9--9--9--3--3--3--3--3--3--3--3--2--2--2--2---5---|
E----------------------------------------------------------------0--0--0--0---3---|

E-----------------------------------------||
B----------|------------------------------||
G--Chorus--|--4p2---2p0-------------------||
D----------|--5p4---4p2-------------------||
A----------|---------------------2-------||
E-----------------3-----3--------0-------||

-----------------------------------------------------------------------------------

****************
*Mattias Guitar*
****************
[ Tab from: http://www.guitartabs.cc/tabs/p/purusam/a_mind_forever_voyage_tab.html ]
Tune Down 1/2 Step To Eb!

E---------------------------------------------------------------------------------|
B--10--------9-------10--------------------------10--------9-------10-------------|
G--11--11~---9--9~---11--11~---------------------11--11~---9--9~---11--11~--------|
D------11~------9~-------11~---4-6-------------------11~------9~-------11~---4-6--|
A-----------------------------------2---6b(7)~------------------------------------|
E-----------------------------------0---------------------------------------------|
			      pm..|					    pm..|

E---------------0~----------------------------------------------------------------|
B---------------0~-----|----------------------------------------------------------|
G---------------7~-----|*---------------------------------------------------------|
D---------------7~-----|*---------------------------------------------------------|
A--2---6b(7)~---5~-----|----------------------------------------------------------|
E--0----------------------2/2-2-2-2-2/2-2-2-2-5-3-2-0--2/2-2-2-2-2/2-2-2-2|
			     pm......|   pm..............|     pm.....|   pm......|
      x4	
E---------------------------------------------------------------------------------|
B--------|--------|-----------|--10--------9-------10--------------------------10-|
G-------*|--------|--Verse-1--|--11--11~---9--9~---11--11~---------------------11-|
D-------*|--------|--(Bass)---|------11~------9~-------11~---4-6------------------|
A--------|--2~----|-(&Drums)--|-----------------------------------2---6b(7)~------|
E--0-0------0~----------------------------------------------------0---------------|
  pm..|							    pm..|

							     Chorus
E---------------------------------------------------------------------------------|
B--------9-------10-----------------------------------------|---------------------|
G--11~---9--9~---11--11~------------------------------------|-11-11-11-11-11-11-11|
D--11~------9~-------11~---4-6-------------------6---7---9--|-11-11-11-11-11-11-11|
A-------------------------------2---6b(7)~---9--------------|--9--9--9--9--9--9--9|
E-------------------------------0-------------------------------------------------|
			  pm..|

E---------------------------------------------------------------------------------|
B---------------------------------------------------------------------------------|
G--11-11-11-11-11-----------------------------11-11-11-11-11-11-11-11-11-11-11-11-|
D--11-11-11-11-11-----------------------------11-11-11-11-11-11-11-11-11-11-11-11-|
A---9--9--9--9--9-3-3-3-3-3-3-3-3-3-3-3-3-3-3--9--9--9--9--9--9--9--9--9--9--9--9-|
E---------------------------------------------------------------------------------|
		 pm..........................|

E---------------------------------------------------------------------------------|
B--------------------------------------------------|-----------|------------------|
G--------------------------------------------------|--Verse-2--|-11-11-11-11-11-11|
D--------------------------------------------------|--(Bass)---|-11-11-11-11-11-11|
A--3-3-3-3-3-3-3-3-3-0-0-0-0-0-0-0-0-0-0--0-2------|-(&Drums)--|--9--9--9--9--9--9|
E---------------------------------------------0-2---------------------------------|
  pm....................................|
	
				     	  Riff during Guitar Solo	       x2
E---------------------------------------------------------------------------------|
B-----------------------------|----------|---------------------------|---Riff-3---|
G-11-11-11-11-11-11-11-11-11--|--Chorus--|---------------------------|--(Same-as)-|
D-11-11-11-11-11-11-11-11-11--|----------|---------------------------|--(Johnny)--|
A--9--9--9--9--9--9--9--9--9--|----------|--2--4-----2--4-----2--4---|------------|
E-------------------------------------------0--2-----0--2-----0--2----------------|

E---------------------------------------------------------------------------------|
B---------------------------------------------------------------------------------|
G--11-11-11-11-11-11-11-11-11-11-11-11-----------------------------11-11-11-11-11-|
D--11-11-11-11-11-11-11-11-11-11-11-11-----------------------------11-11-11-11-11-|
A---9--9--9--9--9--9--9--9--9--9--9--9-3-3-3-3-3-3-3-3-3-3-3-3-3-3--9--9--9--9--9-|
E---------------------------------------------------------------------------------|
				      pm..........................|

E---------------------------------------------------------------------------------|
B---------------------------------------------------------------------------------|
G-11-11-11-11-11-11-11------------------------------------------------------------|
D-11-11-11-11-11-11-11------------------------------------------------------------|
A--9--9--9--9--9--9--9--3-3-3-3-3-3-3-3-3-0-0-0-0-0-0-0-0-0-0---------------------|
E-------------------------------------------------------------3-3-3-3-3-3-3-3-3-3-|
		       pm.........................................................

E--------------------------||
B--------------------------||
G--------------------------||
D--------------------------||
A--------2--4-----2-------||
E-3-3-3--0--2-----0-------||
 ......|
Comments